Filha da Puta

Ultraje a Rigor

Composição: Roger Moreira
Tom: G
A
Morar nesse país
       D             E
É como ter a mãe na zona
   A
Você sabe que ela não presta
          D                E
E ainda assim adora essa gatona
B                 D
Não que eu tenha nada contra
A                 E
Profissionais da cama
           D            A
Mas são os filhos dessa dama
       B                  E
Que você sabe como é que chama

A
Filha da puta
É tudo filho da puta

Solo entre refrão:

E|-----5-----5-----5-----5-----5-----7---8-8----|
B|-5h7---5h7---5h7---5h7---5h7---5h7-----8-8----|
G|----------------------------------------------|
D|----------------------------------------------|
A|----------------------------------------------|
E|----------------------------------------------|

E|-----5-----5-----5-----5-----5-----7----------|
B|-5h7---5h7---5h7---5h7---5h7---5h7-----5-5----|
G|---------------------------------------5-5----|
D|----------------------------------------------|
A|----------------------------------------------|
E|----------------------------------------------|

A
É uma coisa muito feia
          D              E
E é o que mais tem por aqui
        A
E sendo nós da Pátria filhos
        D           E
Não tem nem como fugir
  B             D
E eu não vi nenhum tostão
          A                 E
Da grana toda que ela arrecadou
   D            A
Na certa foi parar na mão
            B        E
De algum maldito gigolô

A
Filha da puta
É tudo filho da puta

A
'Cês me desculpem o palavrão
    D                E
Eu bem que tentei evitar
         A
Mas não achei outra definição
      D          E
Que pudesse explicar
B            D
Com tanta clareza
       A                E
Aquilo tudo que a gente sente
  D              A
A terra é uma beleza
          B           E
O que estraga é essa gente

A
Filha da puta
É tudo filho da puta
Página 1 / 1

Letras y titulo
Acordes y artista

restablecer los ajustes
OK