Cifra Club

Aprenda

The Wild The Beautiful And The Damned

Ultravox

Tab de bajo: Principal
e:---------------------:           |
a:-5----3----1----3----:           |
d:---------------------:           |
g:---------------------: x3        |
                               (section A)
e:-------------:                   |
a:-5----3----1-:                   |
d:-------------:                   |
g:-------------:                 _____
                                                    _____
e:----------------------------------------------:     |
a:-5-55---3-33-----1-10-2-5-55-3-5-55-----------:     |
d:------23-----232--------------------23-33-323-:     |
g:----------------------------------------------:     |
                                                   (section B)
e:------------------:                                 |
a:------------------:                                 |
d:-55555555---------:                                 |
g:---------77777777-:                               _____

e:----------------------------------------------:
a:-5-55---3-33-----1-10-2-5-55-3-5-55-----------:
d:------23-----232--------------------23-33-323-:
g:----------------------------------------------:

e:---------------------------------------------------:
a:------------------5-55-3113-33103-55555555---------:
d:-55555555------------------------------------------:
g:---------77777777-------------------------77777777-:

e:---------------------------------:
a:-1-1-1-1-3-3-3-3-555555555555555-:
d:---------------------------------:
g:---------------------------------:

e:--------------------------------------:
a:-1-1-1-1-333333335-55-35-55-35-55---3-:
d:----------------------------------23--:
g:--------------------------------------:

e:-------------------------------------:
a:-33-----1-10-2-5-55-3-5-55-----------:
d:----232--------------------23-33-323-:
g:-------------------------------------:

e:------------------:
a:------------------:
d:-55555555---------:
g:---------77777777-:
                          |<-----section D----->|
e:----------------------------------------------:
a:-5-55---3-33-----1-10-2-5-55-3-5-55-----------:
d:------23-----232--------------------23-33-323-:
g:----------------------------------------------:

                   (----------section C-------------)
e:---------------------------------------------------:
a:------------------5-55-3113-33103-55555555---------:
d:-55555555------------------------------------------:
g:---------77777777-------------------------77777777-:

e:---------------------------------------------------:
a:-1-1-1-1-3-3-3-3-5555555555555555-1-1-1-1-33333333-:
d:---------------------------------------------------:
g:---------------------------------------------------:

(repeat section A, B then C)
e:----------------------------------------------------:
a:-111111113333333355555555---------111111113333333-5-:
d:----------------------------------------------------:
g:-------------------------77777777-------------------:

e:-------------------------------------------------:
a:-5-----------------5555555555555555-5--53--31--3-:
d:-------------------------------------------------:
g:-------------------------------------------------:

(repeat section D)

e:------------------:
a:------------------:
d:-55555555---------:
g:---------77777777-:

e:----------------------------------:
a:-11111111333333335555555555555555-:
d:----------------------------------:
g:----------------------------------: x7

e:---------------------------------------------------:
a:-111111113333333355555555---------1111111155555555-:
d:---------------------------------------------------:
g:-------------------------77777777------------------:

e:---------------------------------:
a:-5--5-5--5--5-5-1111111133333333-:
d:---------------------------------:
g:---------------------------------:

e:------------------------------------------:
a:-55-33-11-33 55-33-11-33-5555555533333333-:
d:------------------------------------------:
g:------------------------------------------: x2

e:-------------:
a:-55-33-11-33-:
d:-------------:
g:-------------: x4
Compositor Billy Currie / Chris Cross / John Foxx
Colaboración y revision:
  • Élison Duarte
21 reproducciones

0 comentarios

Mostrar mais comentários

¿Conseguiste tocar?

0 Tocaron 0 Ainda não

Grave um vídeo tocando The Wild The Beautiful And The Damned e mande pra gente!

00:00 / 00:00
outros vídeos desta música
repetir qualidade Automático
Outros vídeos desta música
00:00 / 00:00
Automático
OK