Start Menu

Undertale

Composição: Toby Fox
Tom: C
Intro: (tocar 2x)

E|---------------------------------
B|------8~~~------------8~~~-------
G|-----------7~~~--5~~~------------
D|-5~~~----------------------5~~~--
A|---------------------------------
E|---------------------------------

E|----------------5~~~-------------------
B|-----------8~~~------8~~~--------------
G|------5~~~----------------7~~~-5~~~~~--
D|-5~~~----------------------------------
A|---------------------------------------
E|---------------------------------------
Página 1 / 1

Letras y titulo
Acordes y artista

restablecer los ajustes
OK