Nossa Canção

Vanessa da Mata

Composición de: Luiz Ayrão
tono: Bb
[Intro] Bb11  Ddim  F

 Bb11  Ddim
E|X---------------------|
B|----------3---4---3---|
G|-------3------3---3---|
D|----3-----------------|
A|-1--------------------|
E|X---------------------|

 F
E|----------------1-----|
B|--------------------1-|
G|-----------2----------|
D|--------3-------------|
A|-----3----------------|
E|X---------------------|

Bb11       D7             Gm       F7
Olha aqui,preste atenção/essa é a nossa
Bb11   Cm                 F        Cm
Canção/vou cantá-la seja onde for/para
           F             Cm          F7
Nunca esquecer o nosso amor,nosso amor
Bb11         D7      Gm    F7         Bb11
Veja bem,foi você/a razão e o porquê
Cm                 F         Cm
De nascer essa canção assim/pois você
     F7                  Bb11 
É o amor que existe em mim           
        D7          Gm        D7
Você partiu/e me deixou/nunca mais você
   Gm           F7         Bb11
Voltou/pra me tirar da solidão       
Cm        D7       Cm          D7
E até você voltar/meu bem eu vou cantar
F7               Bb11
Essa nossa canção
Página 1 / 1

Letras y titulo
Acordes y artista

restablecer los ajustes
OK