Let It Be

Vazquez Sounds

Composición de: The Beatles
tono: C
Intro:  C   G   Am   F   C   G   F   C


E|-4-----4-2-0-2-0-4-----4-2-0-2-0-4-------------|
B|---5---------------5---------------------------|
G|-----4---------------4-------------------------|
D|-----------------------------------------------|
A|-----------------------------------------------|
E|-----------------------------------------------|

E|-4-----4-2-0-2-0-------------------------------|
B|---5-------------8/10-9-7-5-5------------------|
G|-----4-----------------------------------------|
D|-----------------------------------------------|
A|-----------------------------------------------|
E|-----------------------------------------------|



Riff 1:


E|-4-----4-2-0-2-0--------|
B|---5--------------------|
G|-----4------------------|
D|------------------------|
A|------------------------|
E|------------------------|



Riff 2:


E|-4-----6/7---0---0------|
B|---5-------7---7--------|
G|-----4------------------|
D|------------------------|
A|------------------------|
E|------------------------|


Riff 3:

  F     C

E|-----------------------|
B|--8/10-9-7-5--5--------|
G|-----------------------|
D|-----------------------|
A|-----------------------|
E|-----------------------|

(Riff 1)
   C              G
When I find myself in times of trouble
(Riff 2)
 Am          F
Mother Mary comes to me
(Riff 1)                        (Riff 3)
C                G              F   C
Speaking words of wisdom, let it be
(Riff 1)
    C              G
And in my hour of darkness
(Riff 2)
 Am                F
She is standing right in front of me
(Riff 1)                        (Riff 3)
C                G              F   C
Speaking words of wisdom, let it be

          Am         Am/G       F          C
Let it   be, let it be, let it be, let it be
                                (Riff 3)
C               G               F   C
Whisper words of wisdom, let it be.
(Riff1)
      C              G
And when the broken-hearted people
(Riff 2)
 Am            F
Living in the world agree
(Riff1)                          (Riff3)
 C                  G           F   C
There will be an answer, let it be
(Riff1)
      C                    G
For though they may be parted
(Riff2)
   Am                  F
There is still a chance that they will see
(Riff 1)                         (Riff 3)
 C                  G           F   C
There will be an answer, let it be

          Am         Am/G       F          C
Let it   be, let it be, let it be, let it be
                                  (Riff 3)
C                    G           F   C
There will be an answer, let it be

          Am         Am/G       F          C
Let it   be, let it be, let it be, let it be
                                  (Riff 3)
C                 G              F   C
Whisper words of wisdom, let it be.

E|-----------------------------|
B|-----------------------------|
G|-----------------------------|
D|--9h11-9-7-6-4-2-1-0-2/3-----|
A|-----------------------------|
E|-----------------------------|

Solo: F   C   G   F


E|----------------------------------------------------|
B|----------------------------------------------------|
G|--8h10/12-12~-8h10/12-10~-8h10/12-------------------|
D|----------------------------------10~---------------|
A|----------------------------------------------------|
E|----------------------------------------------------|

E|------------------------------------------------------|
B|------------------------------------------------------|
G|--8h10/12-12~-8h10/12-12~-8h10/12-12~-12/13~(2x)------|
D|------------------------------------------------------|
A|------------------------------------------------------|
E|------------------------------------------------------|



Am         Am/G       F                    C
Let it   be, let it be, let it be, oh just let it be
                               (Riff 3)
                G               F   C
Whisper words of wisdom, let it be.
(Riff 1)
      C                  G
And when the night is cloudy
         (Riff 2)
           Am                 F
There is still a light that shines on me
(Riff 1)                     (Riff 3)
 C            G              F   C
Shine until tomorrow, let it be
(Riff 1)
   C              G
I wake up to the sound of music
(Riff 2)
 Am          F
Mother Mary comes to me
(Riff 1)                          (Riff 3)
 C                G              F   C
Speaking words of wisdom let it be

          Am         Am/G       F          C
Let it   be, let it be, let it be, oh just let it be
                                  (Riff 3)
C                     G          F   C
There will be an answer, let it be

          Am         Am/G       F          C
Let it  be, let it be, let it be, oh just let it be
                                  (Riff 3)
C                  G             F   C
Whisper words of wisdom, let it be

          Am         Am/G       F          C
Let it  be, let it be, let it be, oh just let it be
                                  (Riff 3)
C                  G             F   C
Whisper words of wisdom, let it be.

(F  C  G   F)


Riff final:

E|-----------------------------|
B|-----------------------------|
G|-----------------------------|
D|--9h11-9-7-6-4-2-1-0-3-------|
A|---------------------3-------|
E|-----------------------------|
 (Termina em C)
Página 1 / 1

Letras y titulo
Acordes y artista

restablecer los ajustes
OK