Nah Neh Nah

Vaya Con Dios

Composición de: Danielle Schoovaerts / Dirk Jean-Pierre Schoufs / M. Balfe
tono: B
Standar tuning

Guitar 1

intro:

[e]--9-----------------------|
[b]--9-----------------------|
[g]--10----------------------|
[d]--11----------------------|
[a]--11----------------------|
[e]--9-----------------------|

Bass

intro:

[g]---------------------------------------|
[d]---------------------------------------|
[a]--4------4--2--------------------------|
[e]---------------5--4--------------------|

Guitar 1

verse

e-9-------------9-----------------7------------------9---------------|
b-10------------9-----------------7------------------9---------------|
g-11------------10----------------8------------------10--------------|
d-11------------11----------------9------------------11--------------|
a-9-------------11----------------9------------------11--------------|
e-9-------------9-----------------7------------------9---------------|


bass

verse

g-----------------------------------------------------------------------|
d-----------------------------------------------------------------------|
a-----9-----9----------9--------9---------------4-----4------------4----|
e--------9-----9---12-------9-------9----12--------4------4----7------4-|

g-------------------------/
d-------------------------/
a--4----------------------/  x2.
e------4-----7------------/

g-----------------------------------------------------------------------/
d-----------------------------------------------------------------------/
a--2-----2----------------2-------2------------4----4----2--------------/
e-----2-----2----5-------------2------2----5-----------------5----4---2-/
Página 1 / 1

Letras y titulo
Acordes y artista

restablecer los ajustes
OK