Witching Hour

Venom

Composición de: Conrad Lant / Jeff Dunn / Tony Bray
tono: C
Album: Welcome To Hell



Transcribed By: Johnny (Miskimmin)



.  - palm mute           /  - slide up to
\  - slide down to       ~  - vibrato
p  - pull off            Suffixes for bend
t  - tap                 f  - full bend    h - half bend
ph - pinched harmonic    q  - quarter bend t - tap bend
*  - see comment         ^  - Hold bend    r release bend
,  - slight palm mute    () - ghost note, sustained note
"  - tremolo note         - Trill

Tuning C# F# B E G# C#

Main riff
|-------------------------------------------------------------------|
|-------------------------------------------------------------------|
|-------------------------------------------------------------------|
|-9-\-7-/-9-------------------9-\-7-/-9-----------------------------|
|-7-\-5-/-7-------------------7-\-5-/-7-----------------------------|
|------------0000000000000000---------------------------------------|
             ................

Ooooooooooooh  Hell breaks loose...
|-------------------------------------------------------------------|
|-------------------------------------------------------------------|
|-------------------------------------------------------------------|
|-9--8--7---------------------------7--8--9-\-7-/-9-----------------|
|-7--6--5---------------------------5--6--7-\-5-/-7-----------------|
|-------------------------------------------------------------------|

|----------------------------|--------------------------------------|
|----------------------------|--------------------------------------|
|----------------------------|--------------------------------------|
|-9-\------------------------|--9-\-7-/-9---------------------------|
|-7-\-------------2h3h5p3p2--|--7-\-5-/-7---------------------------|
|-------0h2h3p2p0------------|--------------------------------------|

Bridge
|-------------------------------------------------------------------|
|-------------------------------------------------------------------|
|-------------------------------------------------------------------|
|-5-5--5--5-5--5--5-5--5----9-7-5--4-4--4--4-4--4--4-4--4----7-5-4--|
|-7-7--7--7-7--7--7-7--7--7--------5-5--5--5-5--5--5-5--5--5--------|
|-------------------------------------------------------------------|
       .       .       .                .       .       .

(Ending) WITCHING HOUR!!!!!!
|-------------------------------------------------------------------|
|-------------------------------------------------------------------|
|-------------------------------------------------------------------|
|-999999999999999999999999999---------------------------------------|
|-777777777777777777777777777---------------------------------------|
|-000000000000000000000000000---------------------------------------|


END
Página 1 / 1

Letras y titulo
Acordes y artista

restablecer los ajustes
OK