El niño del tambor

Villancicos

tono: C
E|---3---5---7---7---7---8---7---8---7|
B|------------------------------------|
G|------------------------------------|
D|------------------------------------|
A|------------------------------------|
E|------------------------------------|

E|---3---3---5---7---7---7---8---7---8---7|
B|----------------------------------------|
G|----------------------------------------|
D|----------------------------------------|
A|----------------------------------------|
E|----------------------------------------|

E|---5---7---8---10---10---10---12---10---8---7---5|
B|-------------------------------------------------|
G|-------------------------------------------------|
D|-------------------------------------------------|
A|-------------------------------------------------|
E|-------------------------------------------------|

E|-8---12---10---8---7---10---8---7---5|
B|---5---7---8---10---10---10---12---14---12---10--|
G|-------------------------------------------------|
D|-------------------------------------------------|
A|-------------------------------------------------|
E|-------------------------------------------------|
E|-------------------------------------------------|

E|---3---5---7---7---7---8---7---8---7----|
B|----------------------------------------|
G|----------------------------------------|
D|----------------------------------------|
A|----------------------------------------|
E|----------------------------------------|

E|---5---3---5---3-------------------|
B|-----------------------------------|
G|-----------------------------------|
D|-----------------------------------|
A|-----------------------------------|
E|-----------------------------------|
Página 1 / 1

Letras y titulo
Acordes y artista

restablecer los ajustes
OK