Noche de paz

Villancicos

Composición de: Franz Gruber
tono: G
E|----------0-------|-----------------|----------0-------|-----------------|
B|--3----------3----|--0--------------|--3----------3----|--0--------------|
G|------------------|------------0----|------------------|------------0----|
D|-------0----------|-------0---------|-------0----------|-------0---------|
A|------------------|-----------------|------------------|-----------------|
E|------------------|-----------------|------------------|-----------------|

E|--5----------5----|--2--------------|--3----------3----|-----------------|
B|----------5-------|------------3----|-------0--3-------|--3--------------|
G|-------5----------|-------2---------|------------------|------------0----|
D|------------------|-----------------|------------------|-------0---------|
A|------------------|-----------------|------------------|-----------------|
E|------------------|-----------------|------------------|-----------------|

E|--0----------0----|--3-------2--0----|----------0-------|-----------------|
B|----------1-------|------------------|--3----------3----|--0--------------|
G|-------0----------|-------0----------|------------------|------------0----|
D|------------------|------------------|-------0----------|-------0---------|
A|------------------|------------------|------------------|-----------------|
E|------------------|------------------|------------------|-----------------|

E|--0----------0----|--3-------2--0----|----------0-------|-----------------|
B|----------1-------|------------------|--3----------3----|--0--------------|
G|-------0----------|-------0----------|------------------|------------0----|
D|------------------|------------------|-------0----------|-------0---------|
A|------------------|------------------|------------------|-----------------|
E|------------------|------------------|------------------|-----------------|

E|--5----------5----|--8----5----2----|--3----------3----|--7---------3----|
B|----------5-------|-----------------|-------0--3-------|-------3---------|
G|-------5----------|-----------------|------------------|-----------------|
D|------------------|-----------------|------------------|-----------------|
A|------------------|-----------------|------------------|-----------------|
E|------------------|-----------------|------------------|-----------------|

E|--3---------------|------------------|---------------| |
B|-------3-----0----|--3-------1-------|--0------------| |
G|----------0-------|-------------2----|--0------------| |
D|------------------|-------0----------|---------------| |
A|------------------|------------------|---------------| |
E|------------------|------------------|---------------| |
Página 1 / 1

Letras y titulo
Acordes y artista

restablecer los ajustes
OK