Directo al grano

Viniloversus

Composición de: Rodrigo Gonsalves
tono: D

Intro #1
E|--------------------------------------------------------------------|
B|--------------------------------------------------------------------|
G|-14-14-14-14-14-14-14---12-14-14-14-14-14-14-14-14--12-14-12-14-----| P.M
D|--------------------------------------------------------------------|
A|--------------------------------------------------------------------| X2
E|--------------------------------------------------------------------|

E|--------------------------------------------------------------------|
B|--------------------------------------------------------------------|
G|-14-14-14-14-14-14-14---12-14-14-14-14-14-14-14-14--12-14-12-14-----|
D|--------------------------------------------------------------------|
A|--------------------------------------------------------------------| X2
E|--------------------------------------------------------------------|

Dime lo que quieres ¿Que prefieres
que te hunda o que te eleve?
Seré breve Si tu vienes
te daré lo que no tienes

E|--------------------------------------------------|
B|--------------------------------------------------|
G|--------------------------------------------------|
D|--------------------------------------------------|
A|-19-0-0-0-0--17-15-19-0-0-0-0-17-15-19-0-0-0-0----|
E|--------------------------------------------------|

E|---------------------------------------------------------------|
B|---------------------------------------------------------------|
G|---------------------------------------------------------------|
D|----------17---------------------------------------------------|
A|-17-15-19---17-19-17-19-0-0-0-0-17-15-19-0-0-0-0-17-15-16-16-16|
E|---------------------------------------------------------------|

Dime lo que quieres Si prefieres
que te hunda o que te eleve
Te invito un trago O vamos…

D
Directo al grano
              C
Tarde o temprano
           Em
Yo voy a estar dentro de ti
                 D
No digas no, dime que sí
Que tu si quieres
     C
Tu estatua es una droga más

No me la niegues


E|------------------------------------------------------------------|
B|------------------------------------------------------------------|
G|--------------------------------------------------------5-7-5-7p--|
D|----------------------------------------------------5-7-----------|
A|-7-0-0-0-0--5-3-7-0-0-0-0--5-3-7-0-0-0-0--5-3-7-5-7---------------|
E|------------------------------------------------------------------|

Quisiera verte desde adentro
Usar  mi mano y su talento
Verte sonreír, Tienes que venir
Si tú vienes te daré lo que no tienes
Pero dime como hago ¿te invito un trago o vamos…

D
Directo al grano
              C
Tarde o temprano
           Em
Yo voy a estar dentro de ti
                 D
No digas no, dime que sí
Que tu si quieres
     C
Tu estatua es una droga más

No me la niegues


E|--------------------------------------------------|
B|--------------------------------------------------|
G|--------------------------------------------------|
D|--------------------------------------------------|
A|-19-0-0-0-0--17-15-19-0-0-0-0-17-15-19-0-0-0-0----|
E|--------------------------------------------------|

E|---------------------------------------------------------------|
B|---------------------------------------------------------------|
G|---------------------------------------------------------------|
D|---------------------------------------------------------------|
A|-19-0-0-0-0-17-15-19-0-0-0-0-17-15-16-16-16--------------------|
E|---------------------------------------------------------------|

A                    G
Dime lo que quieres, si prefieres
                      D
que te hunda o que te eleve
                      C
Seré breve y si tú vienes te daré lo que no tienes
 A                    G                        D
Tu que quieres ¿Qué prefieres?.. .¿Que te hunda o que te eleve?
                    C
Seré breve , Y si tú vienes

E|--------------------------------------------------|
B|--------------------------------------------------|
G|--------------------------------------------------|
D|--------------------------------------------------|
A|-19-0-0-0-0--17-15-19-0-0-0-0-17-15-19-0-0-0-0----|
E|--------------------------------------------------|

E|---------------------------------------------------------------|
B|---------------------------------------------------------------|
G|---------------------------------------------------------------|
D|----------17---------------------------------------------------|
A|-17-15-19---17-19-17-19-0-0-0-0-17-15-19-0-0-0-0-17-15-16-16-16|
E|---------------------------------------------------------------|
Página 1 / 1

Letras y titulo
Acordes y artista

restablecer los ajustes
OK