Bebe Vem Me Procurar (part. Wesley Safadão)

Vitor Fernandes

Composición de: Andre Silva
tono: Fm
[Intro] Fm  Eb  Bbm7  Db
        Fm  Eb  Bbm7  Db

E|------------------------------------------|
B|-4-6~------4-6~--6/8-9-6------------------|
G|------------------------------------------|
D|------6-5~--------------------------------|
A|------------------------------------------|
E|------------------------------------------|

E|------------------------------------------|
B|-4-6~------4-6~--6/8-9-6------------------|
G|------------------------------------------|
D|------6-5~--------------------------------|
A|------------------------------------------|
E|------------------------------------------|

[Primeira Parte]

Fm                  Eb              Bbm7
   Eu sei que você fala por aí que não
                 Db              Fm
E jura que é de pedra o seu coração
             Eb               Bbm7  Db
Mas na madrugada vem me procurar

Fm              Eb              Bbm7
   E era só um lance uma distração
            Db            Fm
O meu corpo era sua diversão
              Eb             Bbm7  Db
O nosso combinado era não ligar

[Refrão]

                     Fm        
Olha que tá sentido falta 
               Eb                    Bbm7
Da cama amarrotada, das roupas pela casa
           Db        Fm       Eb            Bbm7  Db
Do cheiro do amor no ar, do cheiro do amor no ar

                   Fm                     Eb  
Olha caiu na madrugada tu viu que tava errada
             Bbm7     Db                 Fm
E tá desesperada, tá louca pra me encontrar
       Eb               Bbm7   Db
Então bebe e vem me procurar

[Solo] Fm  Eb  Bbm  Db
       Fm  Eb  Bbm  Db

E|------------------------------------------|
B|-4-6~------4-6~--6/8-9-6------------------|
G|------------------------------------------|
D|------6-5~--------------------------------|
A|------------------------------------------|
E|------------------------------------------|

E|------------------------------------------|
B|-4-6~------4-6~--6/8-9-6------------------|
G|------------------------------------------|
D|------6-5~--------------------------------|
A|------------------------------------------|
E|------------------------------------------|

[Primeira Parte

Fm                        Eb              Bbm7
   Olha que sei que você fala por aí que não
                 Db              Fm
E jura que é de pedra o seu coração
             Eb               Bbm7  Db
Mas na madrugada vem me procurar

Fm              Eb              Bbm7
   E era só um lance uma distração
            Db            Fm
O meu corpo era sua diversão
              Eb             Bbm7  Db
O nosso combinado era não ligar

[Refrão]

                     Fm        
Olha que tá sentido falta 
               Eb                    Bbm7
Da cama amarrotada, das roupas pela casa
           Db        Fm       Eb            Bbm7  Db
Do cheiro do amor no ar, do cheiro do amor no ar

                   Fm                     Eb  
Olha caiu na madrugada tu viu que tava errada
             Bbm7     Db                 Fm
E tá desesperada, tá louca pra me encontrar
       Eb               Bbm7   Db
Então bebe e vem me procurar

                Fm        
Mas tá sentido falta 
               Eb                    Bbm7
Da cama amarrotada, das roupas pela casa
               Db    Fm       Eb            Bbm7  Db
Do cheiro do amor no ar, do cheiro do amor no ar

[Solo] Fm  Eb  Bbm  Db
       Fm  Eb  Bbm  Db

E|------------------------------------------|
B|-4-6~------4-6~--6/8-9-6------------------|
G|------------------------------------------|
D|------6-5~--------------------------------|
A|------------------------------------------|
E|------------------------------------------|

E|------------------------------------------|
B|-4-6~------4-6~--6/8-9-6------------------|
G|------------------------------------------|
D|------6-5~----------------6-5-3~----------|
A|------------------------------------------|
E|------------------------------------------|
Página 1 / 1

Letras y titulo
Acordes y artista

restablecer los ajustes
OK