Orange

VOCALOID

Composición de: Kagamine Len
tono: D
Intro 2x:
 
E|-----3---3-----3---3---|
B|-----3---3-----3---3---|
G|-----0---0-----0---0---|
D|------------0----2-----|
A|---2----3--------------|
E|-----------------------|

Verso 1 - 4x:                   Última linha do verso:
 
E|-----3---3-----3---3---|     |---3-3-3-------|
B|-----3---3-----3---3---|     |---3-3-3-------|
G|-----0---0-----0---0---|     |---------------|
D|------------0----2-----|     |---0-0---------|
A|---2----3--------------|     |---------------|
E|-----------------------|     |-------3-------|

Refrão:

E|-------------0~-----------0~--------0~--3--3---3~--------------|
B|-----0~------0~---0~------0~---1~---1~--3--3---3~------2----1--|
G|-----0~----2~-----0~----2~-----2~----------------------2----0--|
D|--2~-------2~---2~------2~-----2~--------------2~---2-------2--|
A|--2~------------2~----------------------2--2--------2-------3--|
E|---------------------------------------------------------------|

Verso - 4x:                              Última linha do VERSO:

E|-----3---3-----3---3---|              |--3--3--3-----|
B|-----3---3-----3---3---|              |--3--3--3-----|
G|-----0---0-----0---0---|              |--------------|
D|------------0----2-----|              |--0--0--------|
A|---2----3--------------|              |--------------|
E|-----------------------|              |--------3-----|
Página 1 / 1

Letras y titulo
Acordes y artista

restablecer los ajustes
OK