Going Insane

Warp Brothers

tono: F
This is a good techno * is the bag pipe solo converted onto the guitar.
I Think it sounds pretty good.It is a good beginners solo.


e|----------------|
B|-8-1011-8-1010--|
G|----------------| x2
D|----------------|
A|----------------|
e|----------------|

e|-------8--10-8--------|
B|-8-1011--------1011-8-|
G|----------------------|
D|----------------------|
A|----------------------|
e|----------------------|

Then repeat after repeating go to

e|-1312131213--13-12111211-12--12-----10-12-13-15--15-13-12-13-15--15-13-12-10-8--13-12-10-8-----|
B|-------------------------------------------------------------------------------------------10--|
G|-----------------------------------------------------------------------------------------------|
D|-----------------------------------------------------------------------------------------------|
A|-----------------------------------------------------------------------------------------------|
e|-----------------------------------------------------------------------------------------------|

e|-------8--10-8--------|
B|-8-1011--------1011-8-|
G|----------------------|
D|----------------------|
A|----------------------|
e|----------------------|


the you just repeat over and over again and again.
Página 1 / 1

Letras y titulo
Acordes y artista

restablecer los ajustes
OK