Let Me Go

We the Lion

tono: Bb (con acordes en la forma de G ) Capotraste en 3ª casa
[Intro]

E|----------------------------------------------------------------|
B|-----3--5--5--3--3--5--3----------------------------------------|
G|--/4---------------------4-----4--3--2--------------------------|
D|----------------------------------------5--2--5h7--5--5--5h7--2| |
A|----------------------------------------------------------------|
E|----------------------------------------------------------------|

E|----------------------------------------------------------------|
B|-----3--5--5--3--3--5--3----------------------------------------|
G|--/4---------------------4-----4--3--2--------------------------|
D|----------------------------------------5--2--5h7--5--5--5h7----|
A|----------------------------------------------------------------|
E|----------------------------------------------------------------|

[Primeira Parte]

                     Em
If you hear about an angel, that roams around
C                   Am
If you hear about a sweet sweet girl
Em                        C          Am
A fallen star, she had no place to go
                       Em
Have you heard about a sinner? That broken one
C                         Am
Let me tell you about his deep deep eyes
Em                         C         Am
The coldest man, he had to let you go

[Pré-Refrão]

C                           Em
Hold on, roll roll down, we go
C                           B7
Hold on, roll roll down, we go

[Refrão]

                     Em  G  B7
Why don’t you let me go?
                     Em  G  B7
Why don’t you let me go?

E|-------10--12--12--10--10--12--10---------------------------------------------------------------|
B|--/12------------------------------/12--------12--11--10----------------------------------------|
G|----------------------------------------------------------12--9--12/14--14--12--12/14--14--10---|
D|------------------------------------------------------------------------------------------------|
A|------------------------------------------------------------------------------------------------|
E|------------------------------------------------------------------------------------------------|

E|-------10--12--12--10--10--12--10---------------------------------------------------------------|
B|--/12------------------------------/12--------12--11--10----------------------------------------|
G|----------------------------------------------------------12--9--12/14--14--12--12/14-----------|
D|------------------------------------------------------------------------------------------------|
A|------------------------------------------------------------------------------------------------|
E|------------------------------------------------------------------------------------------------|

( Em  C  Am  Em )
( Em  C  Am )

[Segunda Parte]

                         Em
Have you heard about the killer man? Shackled hands
C                  Am
living on borrowed time
                            Em
He´s got me standing by the precipice, Cause I’m venomous
    C                      Am
But all I want is peace of mind
                          Em
Instead I need to see his face now, Looking down
C                      Am
down upon his own mistakes
                          Em
And when I do, I’ll see a dead man, Holding hands
C                          Am
holding hands with death himself

[Pré-Refrão]

C                           Em
Hold on, roll roll down, we go
C                           B7
Hold on, roll roll down, we go

[Refrão]

                     Em  G  B7
Why don’t you let me go?
                     Em  G  B7
Why don’t you let me go?

[Ponte]

    Em
So, if you have a moment in time
G
think of how you ripped my life
    Am
The devil is coming out for me
          C
Cause I’m empty inside
   Em
So if you have a moment to pay
G
Think of what you took away
    Am
The devil is coming out for me
    C
I’m dead inside as I could be

[Refrão]

                     Em  G  B7
Why don’t you let me go?
                     Em  G  B7
Why don’t you let me go?
                     Em  G  B7
Why don’t you let me go?
                     Em  G  B7
Why don’t you let me go?
Página 1 / 1

Letras y titulo
Acordes y artista

restablecer los ajustes
OK