Cifra Club

I Just Threw Out The Love Of My Dreams

Weezer

Tablatura: Principal (guitarra)
Tom: E
i just threw out ht elove of my dreams   (cuomo)

----------------------------------------
"i just threw out the love of my dreams"
   as performed by weezer.
   -- vocals by rachel haden.

tabbed by: Fung Koo/Chris Flood
           (chris.flood@ns.sympatico.ca)

Tuning : Slightly more than Eb, slightly less than normal.

intro
-----  (moog)

(slide to a and sustain)

e --------
b --------
g --/2----
d --------
a --------
e --------


verse #1
-----

F#     B     E              A
I'm so tall, can't get over me

F#     B    E              A
I'm so low, can't get underneath

F#     B  E          A
I must be all these things, 

F#         B             E          A   
for I just threw out the love of my dreams


chorus
------

F#          B     E           A
He is in my eyes, he is in my ears

F#          B      E           A
He is in my blood, he is in my tears

F#        B       E             A
I breathe love, and see him every day

F#          B          E       A
Even though my love is a world away


bridge
------
C#             D 
Oh he's got me wandering

e--------------------
b----------------14--
g--13-14-13--11------
d--------------------

B                   E
My righteousness is crumbling

e--------------------
b----------------17--
g--13-14-13--11------
d--------------------


verse #2
-----

F#      B       E              A
Never before, have I felt this way

F#        B            E               A
No one is right, but I want for him to stay

F#     B   E      A
I must be made of steel, 

F#         B             E          A   
for I just threw out the love of my dreams


chorus
------

F#         B     E          A
He's in my eyes, he's in my ears

F#         B      E           A
He's in my blood, he is in my tears

F#        B       E             A
I breathe love, and see him every day

F#          B          E       A
Even though my love is a world away


bridge
------
C#             D
Oh he's got me wandering

e--------------------
b----------------14--
g--13-14-13--11------
d--------------------

B                   E
My righteousness is crumbling

e--------------------
b----------------17--
g--13-14-13--11------
d--------------------

(big ol' pick scrape)


solo 
------
(played over verse/chorus chords: F# B E A)

e--------------------------------------------------------------
b--/17--15--14-14-15-14-14-------------------------------------
g---------------------------16--14--16-16-16-16^--14-13-14-----
d--------------------------------------------------------------

e---17-16-14-------------------------------------------
b------------17-15-14-12-14----------------------------
g------------------------------------------------------
d------------------------------------------------------

e-------16--14-----------14--12------------------------
b--------------14--12------------14--12----------------
g---------------------------------------14\------------
d------------------------------------------------------

bridge
------
C#             D
Oh he's got me wandering

e--------------------
b----------------14--
g--13-14-13----------
d------------16------

B                   E
My righteousness is crumbling

e--------------------
b----------------17--
g--13-14-13--11------
d--------------------

C#             D
And I see him every day

e--------------------
b----------------14--
g--13-14-13--11------
d--------------------

B              E
Even though my love can walk away.


chorus
------

F#         B     E          A
He's in my eyes, he's in my ears

F#         B      E           A
He's in my blood, he is in my tears

F#     B  E        A
I must be made of steel, 

F#         B             E          A   
for I just threw out the love of my dreams.
reproducciones 25
Acordes para:
    Colaboración y revision:
    • Luiz Bastos

    0 comentarios

    mostrar más comentarios

    ¿Conseguiste tocar?

    1 tocaron 0 aún no

    ¡Graba un vídeo tocando I Just Threw Out The Love Of My Dreams y envianoslo!

    00:00 / 00:00
    outros vídeos desta música
    repetir qualidade Automático
    Outros vídeos desta música
    00:00 / 00:00
    Automático
    OK