Algo Mais

Xand Avião

Composición de: Blenner Maycom / Waléria Leão
tono: A
[Intro]
          D               Bm                         A9
E|-------------------------------------------------------------|
B|--7/10-9---------7/10-9--------------------------------------|
G|--------9-9/11~--------9-9/11~---7-7-7-7-7-7-7-9-9--7/6~-----|
D|-------------------------------------------------------------|
A|-------------------------------------------------------------|
E|-------------------------------------------------------------|
                                   E7
E|-------------------------------------------------------------|
B|-------------------------------------------------------------|
G|-6-7-6-7-6-7-6-7-6-7-6-7-6-7-6-7/9~--------------------------|
D|-------------------------------------------------------------|
A|-------------------------------------------------------------|
E|-------------------------------------------------------------|

[Primeira Parte]

                      F#m
Qualquer um em meu lugar
       D               E
Deixaria do jeito que tá
               
Você fica carente  
      D7M
Eu te uso 

E te devolvo
                 Bm
Pro seu titular 

[Segunda Parte]

               D
Seria o jeito certo
                               
Se meu coração fosse um 
              A
Pouco mais esperto
 
Não batesse em bit forte 
          
Onde tem que ser discreto
                                         
Enxergasse sentimento em corpo 
      Bm                    D
Que teoricamente tinha que ser
              E 
Apenas um objeto 

[Refrão]

            D
Como é que faz?
            Bm
Como é que faz?
                               A
Quando o amante quer ser algo mais
                               E
Quando o amante quer ser algo mais
            D
Como é que faz?
            Bm
Como é que faz?
                               A
Quando o amante quer ser algo mais
                               E 
Quando o amante quer ser algo mais
                Bm                      
Mais do que um ser que só faz amor selvagem
  D                E          F#m
Quero te ver acordar sem maquiagem

[Segunda Parte]

               D
Seria o jeito certo
                               
Se meu coração fosse um 
              A
Pouco mais esperto
 
Não batesse em bit forte 
          
Onde tem que ser discreto
                                         
Enxergasse sentimento em corpo 
      Bm                    D
Que teoricamente tinha que ser
              E 
Apenas um objeto 

[Solo]

          D               Bm                         A9
E|-------------------------------------------------------------|
B|--7/10-9---------7/10-9--------------------------------------|
G|--------9-9/11~--------9-9/11~---7-7-7-7-7-7-7-9-9--7/6~-----|
D|-------------------------------------------------------------|
A|-------------------------------------------------------------|
E|-------------------------------------------------------------|
                                   E7
E|-------------------------------------------------------------|
B|-------------------------------------------------------------|
G|-6-7-6-7-6-7-6-7-6-7-6-7-6-7-6-7/9~--------------------------|
D|-------------------------------------------------------------|
A|-------------------------------------------------------------|
E|-------------------------------------------------------------|

[Refrão]

            D
Como é que faz?
            Bm
Como é que faz?
                               A
Quando o amante quer ser algo mais
                               E
Quando o amante quer ser algo mais
            D
Como é que faz?
            Bm
Como é que faz?
                               A
Quando o amante quer ser algo mais
                               E 
Quando o amante quer ser algo mais
                Bm                      
Mais do que um ser que só faz amor selvagem
  D                E          F#m
Quero te ver acordar sem maquiagem

            D
Como é que faz?
            Bm
Como é que faz?
                               A
Quando o amante quer ser algo mais
                               E
Quando o amante quer ser algo mais
            D
Como é que faz?
            Bm
Como é que faz?
                               A
Quando o amante quer ser algo mais
                               E 
Quando o amante quer ser algo mais
                Bm                      
Mais do que um ser que só faz amor selvagem
  D                E          F#m
Quero te ver acordar sem maquiagem

( D  Bm  A  E )
Página 1 / 1

Letras y titulo
Acordes y artista

restablecer los ajustes
OK