Believe

Yellowcard

Composição de: Peter Mosely / Yellowcard
Intro x2 
|-----------7777-----------6666-----9-1212121212---------------| 
|--------------------------------777--------------99999999999--| 
|-----------------555555555------------------------------------| 
|--555555555---------------------------------------------------| 
 
Verse no bass (Think about the love...) 
 
(But you still...)1x 
|-----------------------------------------------------------------| 
|---------------------77777777--99999999--000000-7777-22222-------| 
|--55555555--77777777---------------------------------------------| 
|-----------------------------------------------------------55555-| 
 
Chorus (Everything is gonna be alright...) 
|---------------------------------------------------------------| 
|--------------------------------77-777-777-777--99-999-999-999-| 
|-----------------55-555-555-555--------------------------------| 
|--55-555-555-555-----------------------------------------------| 
 
Repeat Intro 2 times 
 
Verse 2 (Think about the chance...) 
|-----------------------------------------------| 
|----------------------777777777----------------| 
|------------555555555-----------11-11-11-11-11-| 
|--555555555------------------------------------| 
 
Pre-Chorus (And you still...)1x 
|-----------------------------------------------------------------| 
|---------------------77777777--99999999--000000-7777-22222-------| 
|--55555555--77777777---------------------------------------------| 
|-----------------------------------------------------------55555-| 
 
Chorus (Everything is gonna be alright...)x2 
|---------------------------------------------------------------| 
|--------------------------------77-777-777-777--99-999-999-999-| 
|-----------------55-555-555-555--------------------------------| 
|--55-555-555-555-----------------------------------------------| 
 
Break Out (Again today...)x2 
|-----------------------------------------------| 
|----------------------777777777----------------| 
|------------555555555-----------11-11-11-11-11-| 
|--555555555------------------------------------| 
 
Chorus 2 (Wanna hold my...)x2 
|-----------------------------------------------| 
|----------------------777777777----------------| 
|------------555555555-----------11-11-11-11-11-| 
|--555555555------------------------------------| 
 
Chorus (Everything is gonna be alright...)x4 
|-----------------------------------------------| 
|----------------------777777777----------------| 
|------------555555555-----------11-11-11-11-11-| 
|--555555555------------------------------------| 

_______________________________________________________
Contribuição: vitor(vitor_kasikawa@hotmail.com)
Página 1 / 1

Letras y titulo
Acordes y artista

restablecer los ajustes
OK