Apaixonado Por Você

Zezé Di Camargo e Luciano

tono: C
[Solo]

E|--------------------------------------|
B|-----888/--666/--555------------------|
G|----------------------5-5/7--9--7-----|
D|--------------------------------------|
A|--------------------------------------|
E|--------------------------------------|

E|--------------------------------------|
B|----101010/--888/--666--6-5-6-5-8-----|
G|--------------------------------------|
D|--------------------------------------|
A|--------------------------------------|
E|--------------------------------------|

E|------------------------------------------------------------------------|
B|----888--666--555--333--------------------------------------------------|
G|-------------------------5--7--7/9-7---7-9-10-9-7-7--10-9-7-5-----------|
D|------------------------------------------------------------------------|
A|------------------------------------------------------------------------|
E|------------------------------------------------------------------------|
 intr.C Dm G C G.

[É só acertar o tempo do solo com a música]

C
Eu nunca imaginei alguém,
   C                               Dm
alguém como assim como você , eu nunca encontrei 
   G
Você não tem explicação,
                                    C    F
você fez com meu coração , foi amor eu sei.

 C
Numa noite de domingo,
                                 Dm
numa festa com os amigos , aqui no planeta terra.
  G
Você foi uma estrela,
                     C
Que brilhou no céu, da minha esfera.


ESTRIBÍLIO
F
A gente se esbarrou,
C
um clima então pintou , ficamos juntos....
G
Depois daquela transa ,
F                                             C
fiquei com a mente zanza , te amando muito...


REFRÃO ( 1º parte )

| Foi bom eu te beijar na boca
                                    Dm           F
| te esperar a vida toda , e te amar , e te amar ,
              C
| até o amanhecer....

| Você tem mel no seu amor,
                               Dm       F
| e esse doce me deixou , assim , a fim ,
            G         C
| apaixonado por você....


SOLO: Dm F C F  C Dm F Dm C

E|--------------------------------------|
B|-----888/--666/--555------------------|
G|----------------------5-5/7--9--7-----|
D|--------------------------------------|
A|--------------------------------------|
E|--------------------------------------|

E|--------------------------------------|
B|----101010/--888/--666--6-5-6-5-8-----|
G|--------------------------------------|
D|--------------------------------------|
A|--------------------------------------|
E|--------------------------------------|

E|------------------------------------------------------------------------|
B|----888--666--555--333--------------------------------------------------|
G|-------------------------5--7--7/9-7---7-9-10-9-7-7--10-9-7-5-----------|
D|------------------------------------------------------------------------|
A|------------------------------------------------------------------------|
E|------------------------------------------------------------------------|

ESTRIBÍLIO
F
A gente se esbarrou,
C
um clima então pintou , ficamos juntos....
G
Depois daquela transa ,
F                                             C
fiquei com a mente zanza , te amando muito...

repete: refrão ( 1º parte )  C#

REFRÃO 2

| Foi bom eu te beijar na boca
                                    D#m          F#
| te esperar a vida toda , e te amar , e te amar ,
              C#
| até o amanhecer....

| Você tem mel no seu amor,
                               D#m      F#
| e esse doce me deixou , assim , a fim ,
            G#         C#        ( F# ) C#
| apaixonado por você....
Página 1 / 1

Letras y titulo
Acordes y artista

restablecer los ajustes
OK