Cifra Club

Como Acaban Los Sueños

091

Cifrado: Principal (guitarra y guitarra eléctrica)
tono: C
Intro (Versión del ultimo concierto)

   Am
E|---------------------------
B|-------------5-------------
G|--------5-------5----5-----
D|-----7-----7------7-----7--
A|---------------------------
E|---------------------------

(Arpegio 1)

     Am       G      F         G   C  G       Am
E|---------------------------------------------------------------
B|-------5------3------1---------------------------------5-------
G|---------5------4------2------4-s-9-s-4--4p3s-5-----------5----
D|----7------7------5------3----5-s10-s-5--5--s-7-----7--------7-
A|---------------------------------------------------------------
E|---------------------------------------------------------------

(Arpegio 2)

     Am              G                 F              G
E|------------------------------------------------------------------------
B|------5-----5-----5----3-----3-----3----1----1-----1----3-----3-----3---
G|--------5-----5----------4-----4----------2----2----------4-----4-------
D|----7-----7-----7----5-----5-----5----3-----3----3----5-----5-----5-----
A|------------------------------------------------------------------------
E|------------------------------------------------------------------------


(Arpegio 2)
Le robé a las sombras unos gramos
de oscuridad
(Arpegio 1)

(Arpegio 2)
y a la multitud pedi prestado
un poco mas de soledad
(Arpegio 1)

 C                             G           F
Al grito le pedí silencio y calma a la ciudad
 C                D                 F
llamando por su nombre al sueño este 
 G
no tardo en llegar
(Arpegio 1)

(Como la primera parte)
Había diecisiete espejos rotos
encima de un altar
Reflejando esa parte de nosotros
que intentamos ocultar

Habia un mapa imaginario un libro sin final
el camino estaba ya trazado y algo
nos impedía andar

 C          D         F          G 
No puedo recordar jamás como acaban los sueños
después de despertar se desvanecen y los pierdo
no puedo recordar
no puedo recordar jamás
los sueños
los sueños
como acabán los sueños

Am F G (durante un rato)

(Como la primera parte)
De ceniza y de promesas rotas
se tiñó el amanecer
mis penas y mis huesos flotan
entre aviones de papel

Diecisiete osos de peluche buscan algo en que creer
diecisiete tumbas diecisiete nubes
lo intento
pero no puedo correr

No puedo recordar...

Am F G (Durante un rato, mientras Jose Ignacio hace un solo en La)

No puedo recordar...
Composición de Eurovisión 69 Canta en Español (sello az Hispavox)/Jose Ignacio Lapido
Colaboración y revisión:
  • Dilson Cassaro
116 vistas
    • ½ Tono
    • A
    • Bb
    • B
    • C
    • Db
    • D
    • Eb
    • E
    • F
    • F#
    • G
    • Ab
  • Agregar a la lista

    0 comentarios

    Ver todos los comentarios

    ¿Lograste tocar?

    0 Tocaron 0 Aún no

    ¡Graba un video tocando Como Acaban Los Sueños y envíanoslo!

    00:00 / 00:00
    Outros vídeos desta música
    Repetir Calidad Automático
    Outros vídeos desta música
    00:00 / 00:00
    Automático
    OK