Cifra Club

En La Calle

091

Cifrado: Principal (guitarra y guitarra eléctrica)
tono: C
INTRO:  D  C  F  C 

e|-----------------------------------------|
B|-----------------------------------------|
G|-----------------------------------------|
D|-----------------5-----------------5/7---|
A|------5---7---8-----8--7----5---5--------|
E|-------------------------8---------------|

e|----------------------------------------|
B|----------------------------------------|
G|----------------------------------------|
D|-----------------5----------------------|
A|------5---7---8-----8--7----------------|
E|-------------------------8--3/5---3/5---|

D                    A#               F              
He estado solo entre cientos de horas muertas
D                         A#         F 
y ahora hay grietas en mi corazon de piedra

G        D 
mi sexto sentido
F           C
me dice que estas cerca
G           D
y el tiempo perdido
G       A#                      F 
lo ganare corriendo hacia ti

Todas las noches que bebi en solitario
me acostumbre a beber los tragos mas amargos

la calle me espera
para seguir tus huellas
la calle me espera 
ahora el tiempo juega contra mi

en la calle
el amor se esconde 
en la calle
puedo oir tus pasos 
en la calle
el sol se pone solo hacia ti

Hazte una idea de porqué sueño en blanco y negro
son muchas horas trabajando como un perro

la calle me espera
para seguir tus huellas
la calle me espera 
ahora el tiempo juega contra mi

en la calle....
A#                F
Rodeado solo de silencio
A#                     F      C
espere el momento de poder gritar
A#
en la calle
en la calle....
Composición de 460/Jose ignacio g. lapido
Colaboración y revisión:
  • Dilson Cassaro
172 vistas
    • ½ Tono
    • A
    • Bb
    • B
    • C
    • Db
    • D
    • Eb
    • E
    • F
    • F#
    • G
    • Ab
  • Agregar a la lista

    0 comentarios

    Ver todos los comentarios

    ¿Lograste tocar?

    0 Tocaron 0 Aún no

    ¡Graba un video tocando En La Calle y envíanoslo!

    00:00 / 00:00
    Outros vídeos desta música
    Repetir Calidad Automático
    Outros vídeos desta música
    00:00 / 00:00
    Automático
    OK