Cifra Club

Nubes Con Forma de Pistola

091

Cifrado: Principal (guitarra y guitarra eléctrica)
tono: D
INTRO:

E|--------0^2-----3-----2------
B|-------3----3-----3-----3----
G|---0^2--------2-----2-----2--
D|-0---------------------------  (dos veces)
A|-----------------------------
E|-----------------------------

E|-2/7--7--5---2^3-2-0---------------------------------2-----3-----------2-
B|-----------------------3^0--------------------0-2-3----3-----3-------3---
G|---------------------------0--2--0--2^4^2^0-2-----2------2-----2--0^2----
D|-0----0--0---0-----0---0------0-----0-------------0----------------------
A|-------------------------------------------------------------------------
E|-------------------------------------------------------------------------
D
De las alcantarillas
      Am
se escapa una música
    G
delicadamente escrita
               D
de sombras y olvidos

La gente va con prisa
envueltos en sus túnicas
que quitan de su vista
lo que huele a podrido.

Sentado en mi silla 
con una sonrisa estúpida
mis delirios cristalizan
y se hacen suspiros.

ESTRIBILLO
   Am      
Y solo veo nubes 
     G        D
con forma de pistola
      Am           G         D
no es raro, no es raro, no es raro
     Am    G     D    Am  G D
Que solo lluevan balas   por ahora
  Am   G       D    (arpegio) Am G D
que solo lluevan balas
por ahora 

El obrero amontona
ladrillos mientras mira
el rastro de humo 
que ha dejado el reactor

No sabe ni le importa
que fue del rey Midas
pero sabe lo profundo que es el dolor

Lo pesada que es la losa
en la que escrito esta con tiza
'Que mis ojos vean pronto la revolución'

Y en su cielo solo hay nubes 
con forma de pistola
no es raro... (3)
Que solo lluevan balas
por ahora (bis)

Los perros olfatean
el tedio en las aceras
es un hueso que tal vez 
lo puedan devorar

Las miradas estan puestas
en la estela de las piernas
de la última mujer
que acaba de pasar.

Y es que la mente vuela
en órbitas concéntricas
La lluvia esta al caer
y nos despertará

Pero solo vemos nubes
con forma de pistola
no es raro... (3)
Que solo lluevan balas
por ahora (bis)
Composición de Jose Ignacio Lapido/Maqueta
Colaboración y revisión:
  • Dilson Cassaro
126 vistas
    • ½ Tono
    • A
    • Bb
    • B
    • C
    • Db
    • D
    • Eb
    • E
    • F
    • F#
    • G
    • Ab
  • Agregar a la lista

    0 comentarios

    Ver todos los comentarios

    ¿Lograste tocar?

    0 Tocaron 0 Aún no

    ¡Graba un video tocando Nubes Con Forma de Pistola y envíanoslo!

    00:00 / 00:00
    Outros vídeos desta música
    Repetir Calidad Automático
    Outros vídeos desta música
    00:00 / 00:00
    Automático
    OK