Cifra Club

Terciopelo Terraqueo

113 Vicios

Cifrado: Principal (guitarra y guitarra eléctrica)
tono: Am
intro: Am -C -F  X2

            Am   C   F             Am   C   F 
E|-------------------------------|------------1--1------|
B|-------------1-------1--1------|----1--------1--1-----|
G|------------2----0----2--2-----|---2----0-----2--2-2--| INTRO
D|-2h3h2-----2----2------3--3-3--|--2----2--------------|
A|-------3-2-0---3---3-----------|-0----3---3-----------|
E|-------------------1-----------|----------1-----------|

   Am   C   F             Am   C   F 
E|----------------1-----|------------1--1------| (Se toca con la letra,
B|----1-------1----1----|----1--------1--1-----| en toda la canción)
G|---2----0----2----2-2-|---2----0-----2--2-2--|
D|--2----2------3-------|--2----2--------------|
A|-0----3---3-----------|-0----3---3-----------|
E|----------1-----------|----------1-----------|

Am   C  - F                   Am   C   F 
suave,       tercio pelo terráqueo
Am       C        F             Am   C   F 
sedienta vegetación hay en tus manos
Am       C       F     Am   C   F 
el sexo y tu pariente...laaaaaa muerte
Am       C    F 
recuerda su pasado
  Am     C       F 
y viven aquí a mi lado

G            F          Am           D|--------2-----|(AcompAña a las
    y en un palco de cartulina azul, A|-0-2-3-5-5-3--| trompetas)
G        F        Am 
   baila tu enemigo.  E|--8--8--8--8--8----|
B|---5--5--5--5--5---|
G|----5--5--5--5--5--|
D|-7-----------------|

G            F          Am 
y en un palco de cartulina azul, D|--------2-----|
A|-0-2-3-5-5-3--|
G        F         E  - F 
   baila tu enemigo...    que es el mismo que el mío.

G  O SAXO: acompaña con las notas del intro(Lam-Do-Fa)

Am    C   F          Am     C   F 
Viaje       delicioso viaje
  Am        C     F                 Am   C  F 
que va desde el sur, hacia ninguna parte
 Am    C   F   Am       C   F   Am       C    F 
avasallador     estremecedor    sacúdelo bien
               Am   C   F 
nada mas que un viaaaaje










G            F         Am        D|--------2-----|(AcompAña a las
y en un palco de cartulina azul, A|-0-2-3-5-5-3--| trompetas)
G     F         Am 
baila tu enemigo.   E|--8--8--8--8--8----|
B|---5--5--5--5--5---|
G|----5--5--5--5--5--|
D|-7-----------------|

G            F          Am       D|--------2-----|
y en un palco de cartulina azul, A|-0-2-3-5-5-3--|
G     F         E  - F 
baila tu enemigo...     que es el mismo que el mío.

G  O VIOA : acompaña con las notas del intro

G            F          Am       D|--------2-----|(AcompAña a las
y en un palco de cartulina azul, A|-0-2-3-5-5-3--| trompetas)
G     F          Am 
baila tu enemigo.    E|--8--8--8--8--8----|
B|---5--5--5--5--5---|
G|----5--5--5--5--5--|
D|-7-----------------|

G            F         Am        D|--------2-----|
y en un palco de cartulina azul, A|-0-2-3-5-5-3--|
G     F         E  - F  - D  - F                      Am 
baila tu enemigo...             que es el mismo que el mío.  FIN...


En la parte que dice; En un palco de cartulina azul... se puede hacer

E|--------2-----| o si no así  G| --------------2--| Creo que los dos
B|-0-2-3-5-5-3--| D|---------2-3-5----| quedan bien!
G|-0-2-3-5----------|
Composición de 113 Vicios/El Corazón del Salmista
    • ½ Tono
    • Am
    • Bbm
    • Bm
    • Cm
    • C#m
    • Dm
    • Ebm
    • Em
    • Fm
    • F#m
    • Gm
    • G#m
  • Agregar a la lista

    0 comentarios

    Ver todos los comentarios

    ¿Lograste tocar?

    0 Tocaron 0 Aún no

    ¡Graba un video tocando Terciopelo Terraqueo y envíanoslo!

    00:00 / 00:00
    Otros videos de esta canción
    Repetir Calidad Automático
    Otros videos de esta canción
    00:00 / 00:00
    Automático
    OK