Cifra Club

Cemento y tierra

12 Tribus

Cifrado: Principal (guitarra y guitarra eléctrica)
tono: Em
E|-------7-8------------------------------------|
B|-----8-----10----------------8-------7-10-7---|
G|---9----------9------------9---9---8----------|
D|-9--------------10-7s9-9-9-------9----------9-|
A|----------------------------------------------|
E|----------------------------------------------|

E|-----7---8--------------------------------------|
B|---8---8---10----------------8---------7-10-8-7-|
G|-9------------9------------9---9-----8----------|
D|----------------10-7s9-9-9-------9-9------------|
A|------------------------------------------------|
E|------------------------------------------------|

E|-------7-8------------------------------------|
B|-----8-----10----------------8---------7-10-7-|
G|---9----------9------------9---9-----8--------|
D|-9--------------10-7s9-9-9-------9-9----------|
A|----------------------------------------------|
E|----------------------------------------------|

E|-------7---8------------------------------------|
B|-----8---8---10----------------8-------7-10-8-7-|
G|---9------------9------------9---9---8----------|
D|-9----------------10-7s9-9-9-------9------------|
A|------------------------------------------------|
E|------------------------------------------------|

            Em            B7
A: Yo soy latino de cemento y tierra
                             Em         E7
   Fuerza e ideas traigo a manos llenas
             Am             Em
   Cada mañana desde mi ventana
                        B7
   Veo al hombre que trabaja
                     Em
   Cargando una ilusión.

A: Y eres latino de sudor y sangre
   De un continente donde sobra el hambre
   Con mis cantares espanto los males
   Que son los que alimenta
   A  misma ilusión.

A: Somos latinos de color y sabor
   Traigo en el cuerpo traigo canción
   Mi canto es libre, mi voz es nueva
   Traigo fuego que quema
   Al que no quiera ver.

   (F LUTA TRAVERSA)

     Em               Am
e |:-------------------------------| ] ÉSTOS SÍMBOLOS (|: :|)
B |:-------------------------------|   INDICAN QUE LOS
G |:------------------------9p7----|   COMPASES
D |:------9-------9---10-10-----10-|   QUE SE ENCUENTD N
A |:-7-10----7-10------------------|   ENTD  ELLOS,
E |:-------------------------------|   SE DEBEN D PETIR.

    Em       B7
E|----------------------------| :| ] LOS NÚMEROS DE LOS ESPACIOS
B|-8-8-7----8s10-10-8-7~--(8)-| :|   DE A S NOTAS QUE ESTÉN
G|-------9~-------------------| :|   ENTD  PARÉNTEB S SE TOCAN,
D|----------------------------| :|   SÓLO, EN A  D PETICIÓN.
A|----------------------------| :|
E|----------------------------| :|

   Em             Am                   Em
B: Como lo dijo Simón y lo cantó Rubén
           B7            Em
   ¡Latinoamérica unida!
               Am              Em             B7           Em
   Con un ojo fijo en el pasado, al futuro claro puedo ver
   Em             Am                   Em
   Como lo dijo Simón y lo cantó Rubén
           B7            Em
   ¡Latinoamérica unida!
                    Am
   Son las mismas vendas que enceguecen,
   Em             B7       Em
   Que nos hacen retroceder
   Em             Am                   Em
   Como lo dijo Simón y lo cantó Rubén
           B7            Em
   ¡Latinoamérica unida!
                 Am              Em            B7          Em
   Grabando en disco el documento del sufrimiento del ayer
   Em             Am                   Em
   Como lo dijo Simón y lo cantó Rubén
           B7            Em
   ¡Latinoamérica unida!
                     Am              Em
   Recuerda que el plástico se derrite
                            C7  B7  E7
   Si le da de lleno el sol.

A':Mi canto es libre
   Mi voz es nueva
   Traigo fuego que quema
   Al que no quiera ver.

INTERLUDIO: (GUITARRA)
''''''''''
    Em      Am          Em            B7
E|-------7-8------------------------------------|
B|-----8-----10----------------8---------7-10-7-|
G|---9----------9------------9---9-----8--------|
D|-9--------------10-7s9-9-9-------9-9----------|
A|----------------------------------------------|
E|----------------------------------------------|

    Em      Am          Em          B7
E|-------7-8------------------------------------|
B|-----8-----10----------------8-------7-10-8-7-|
G|---9----------9------------9---9---8----------|
D|-9--------------10-7s9-9-9-------9------------|
A|----------------------------------------------|
E|----------------------------------------------|


B: Como lo dijo Simón y lo canto Rubén
   ¡Latinoamérica unida!
   Un continente con las armas pa soñar
   Con una historia y una forma de pensar
   Como lo dijo Simón y lo canto Rubén
   ¡Latinoamérica unida!
   Como un hijo que a su madre extraña
   Canto del sur sabor a mar y a montaña
   Como lo dijo Simón y lo canto Rubén
   ¡Latinoamérica unida!
   Si existe gente que se para pa' aprender
   Entonces hay gente que tiene algo que enseñar
   Como lo dijo Simón y lo canto Rubén
   ¡Latinoamérica unida!
     B7              Em             Am   Em
   Recuerda que el plástico se derrite, si le da de lle
         B7
   Si le da de lleno el sol


MELODÍA FINAL: (FA UTA TRAVERSA)
'''''''''''''

         Am                   Em                B7
E|----7-7h8-------7-7h8-7----7----------7------------|
B|-10-----10~--10---------10---8~--8-10---10-8-8-7~--|
G|---------------------------------------------------|
D|----------------------------| ¡Canto pa' no olvidar!-|
A|---------------------------------------------------|
E|---------------------------------------------------|

     B7            Em   B7            Em
e |:--------------------------------------:| ¡Recuérdalo!
B |:-7-7-7h8p7----------7-7-7h8p7---------:| ¡Recuerda!
G |:-----------9-8-9~-------------9-8-9~--:|
D |:--------------------------------------:|
A |:--------------------------------------:|
E |:--------------------------------------:|


FIN!

LISTAC  DE ACORDES:
..................

        e B G D A E
        | | | | | |
        | | | | | |       PISAR A  CUERDA.
        | | | | | |       SE DEBE PULSAR AL AID .
        | | | | | |       NO SE DEBE PULSAR.
        | | | | | |
E|-----------|
Composición de 12 Tribus
2 vistas
    • ½ Tono
    • Am
    • Bbm
    • Bm
    • Cm
    • C#m
    • Dm
    • Ebm
    • Em
    • Fm
    • F#m
    • Gm
    • G#m
  • Agregar a la lista

    0 comentarios

    Ver todos los comentarios

    ¿Lograste tocar?

    0 Tocaron 0 Aún no

    ¡Graba un video tocando Cemento y tierra y envíanoslo!

    00:00 / 00:00
    Otros videos de esta canción
    Repetir Calidad Automático
    Otros videos de esta canción
    00:00 / 00:00
    Automático
    OK