Cifra Club

Jesus, o Bom Pastor!

123Nove!

Cifrado: Principal (guitarra y guitarra eléctrica)
tono: C
(intro) F G Am F G C F G Am F G

E|----------------------------------|----------------------------------|
B|--5-----------------------5-5-5---|--5-------------------------------|
G|-----7-5-4-5-5----7-7-7-----------|-----7-5-4-5-5----7-7-------------|
D|----------------------------------|----------------------5-----------|
A|----------------------------------|----------------------------------|
E|----------------------------------|----------------------------------|

E|----------------------------------|----------------------------------|
B|--5-----------------------5-5-5---|--5-------------------------------|
G|-----7-5-4-5-5----7-7-7-----------|-----7-5-4-5-5----7-7--(7)--------|
D|----------------------------------|----------------------------------|
A|----------------------------------|----------------------------------|
E|----------------------------------|----------------------------------|

   C
Jesus o bom pastor
       G
Dá sua vida pela ovelha
     Am
Ela ouve a sua voz
     F
E o segue
   C
Jesus, a Luz do Mundo
     G
O Autor da Salvação
      Am
o Cordeiro de Deus
        F
Que ressuscitou!

        G             Am
Ele é Jesus, Ele é Jesus
Ele é Jesus, Ele é Jesus

(intro)

(repete tudo)
00:00 / 00:00
Otros videos de esta canción
Repetir
Otros videos de esta canción
Compositor no encontrado.
Colaboración y revisión:
  • Louvor Pró
31 vistas
    • ½ Tono
    • A
    • Bb
    • B
    • C
    • Db
    • D
    • Eb
    • E
    • F
    • F#
    • G
    • Ab
  • Agregar a la lista

    0 comentarios

    Ver todos los comentarios

    ¿Lograste tocar?

    1 Tocaron 0 Aún no

    ¡Graba un video tocando Jesus, o Bom Pastor! y envíanoslo!

    00:00 / 00:00
    OK