Cifra Club

Nasci de Novo

123Nove!

Cifrado: Principal (guitarra y guitarra eléctrica)
tono: G
(intro 2x)

E|---------------------------------------------|
B|-------------10------------------------------|
G|-12-12-11-12----12-11-12---------------------|
D|---------------------------------------------|
A|---------------------------------------------|
E|---------------------------------------------|

E|-------------------------------------------3-|
B|-------------10----------------13-13-13-12---|
G|-12-12-11-12----12-11-12---------------------|
D|-------------------------14-14---------------|
A|---------------------------------------------|
E|---------------------------------------------|

G
Eu nasci de novo em Cristo
  Em                 C   Am
Uma nova criação eu sou
             G
Templo do Espírito

G
Já não há condenação
Em                      C     Am
Livre sou de toda maldição
       G
Fui redimido

       D        Em      D    C
Sua palavra é luz pro meu caminho
     D        Em      D       C
Sua graça, é tudo que eu preciso

     G        C       D
Eu nasci de novo em Cristo
        G       C     D
Eu sou filho do Deus Vivo
        Em           C   D      G
Tenho a Sua Vida e Natureza em mim

    G             C
Nasci de novo (Nasci de novo)
Composición de Eliana Rodrigues
Colaboración y revisión:
  • Louvor Pró
17 vistas
    • ½ Tono
    • A
    • Bb
    • B
    • C
    • Db
    • D
    • Eb
    • E
    • F
    • F#
    • G
    • Ab
  • Agregar a la lista

    0 comentarios

    Ver todos los comentarios

    ¿Lograste tocar?

    1 Tocaron 0 Aún no

    ¡Graba un video tocando Nasci de Novo y envíanoslo!

    00:00 / 00:00
    Outros vídeos desta música
    Repetir Calidad Automático
    Outros vídeos desta música
    00:00 / 00:00
    Automático
    OK