Cifra Club

Pobre Corazón

18 Kilates

Cifrado: Principal (guitarra y guitarra eléctrica)
tono: A
Intro:

E|--12-11--------|---| ----------
B|---| ---12-12-14|-10--12-12-14-
G|-------| -------|------ -------
D|-------| -------|--------------
A|---------------|--------------|
E|---------------|--------------|

E|--12-11--------|---11-11/12-11|
B|---| ---12-12-14|--------------
G|-------| -------|------ -------
D|-------| -------|--------------
A|---------------|--------------|
E|---------------|--------------|

                                      A 
E|--12-11--------|---| ----------------------0
B|---| ---12-12-10-12-10-12-10-12-10-12-----2
G|-------| -------|------ -----------------2
D|-------| -------|-----------------------2
A|---------------|----------------------0|
E|---------------|---------------------0|

                                   E 
E|--12-11--------|---| ------------------0
B|---| ---12-12-9-12-9-12-9-12-9-12-----0
G|-------| -------|------ -------------1
D|-------| -------|-------------------2
A|---------------|------------------2|
E|---------------|-----------------0|

                                      A 
E|--12-11--------|---| ----------------------0
B|---| ---12-12-10-12-10-12-10-12-10-12-----2
G|-------| -------|------ -----------------2
D|-------| -------|-----------------------2
A|---------------|----------------------0|
E|---------------|---------------------0|

E|--12-11--------|---| -------------11-11/12-11--
B|---| ---12-12-9-12-9-12-9-12-9-12--------------
G|-------| -------|------ -----------------------
D|-------| -------|------------------------------
A|---------------|------------------------------|
E|---------------|------------------------------|


Dakos Music uu uu que dificil es aceptar el adios baby
pero este corazon nunca dejara de buscarte you know.

A 
La situacion es dificil y aguantarla no puedo oo
E 
ya no te noto la misma dejarte yo no quiero oo
A                                  C#m 
por favor mirame mientras te voy hablando que estoy
E 
agonizando por tu adios.

A 
Como explicarle al corazon que hoy te vas
E 
como decirle que sin ti puede seguir
A 
como fingir para que no se de ni cuenta
C#m 
que desde hoy ya no estaras junto a mi no.

(BGA N LOS ACORDES SEGUN EL RITMO SON LOS E SMOS)

Estoy vagando por las calles noce donde ir
desorientado confundido no se que hacer
pues lo unico que hago es pensar en ti
y este corazon a gritos va llamandote.
En mi mente esta claro que ya hoy te vas
es mi corazon que no lo quiere aceptar
pues le hace falta tu cariño y tu calor
dime como aliviar el dolor.

A 
Como explicarle al corazon que hoy te vas
E 
como decirle que sin ti puede seguir
A 
como fingir para que no se de ni cuenta
C#m 
que desde hoy ya no estaras junto a mi no.

A 
No te imaginas como esto afecta mi corazon
como aliviar con esta separacion
E 
aun recuerdo esa primera vez
los dos envueltos y tu tocandome.
A 
Y ahora me encuentro aqui solo y vacio
agonizando no aguanto este frio
C#m 
Dios mio ayudame que esto me mata
dime porque esto me pasa.

A 
Y ahora se va se va se va y se va
C#m                                      E 
y lo mas que me duele que no la vuelvo a ver jamas.
A 
Y hoy se va se va se va y se va
C#m                                      E 
y lo mas que me duele que no la vuelvo a ver jamas.

A 
Como explicarle al corazon que hoy te vas
E 
como decirle que sin ti puede seguir
A 
como fingir para que no se de ni cuenta
C#m 
que desde hoy ya no estaras junto a mi no.

A 
Como explicarle al corazon que hoy te vas
(que hoy te vas)
E 
como decirle que sin ti puede seguir
(puede seguir)
A 
como fingir para que no se de ni cuenta
(se de ni cuenta)
C#m 
que desde hoy ya no estaras junto a mi
(junto a mi).
00:00 / 00:00
Otros videos de esta canción
Repetir
Otros videos de esta canción
Composición de Dema Emanar/Demo Emanar/Emanar(demo)/Emanar2001- Recicle/Esquemas Juveniles/Mena/Otra Era/Recicle
2 vistas
    • ½ Tono
    • A
    • Bb
    • B
    • C
    • Db
    • D
    • Eb
    • E
    • F
    • F#
    • G
    • Ab
  • Agregar a la lista

    0 comentarios

    Ver todos los comentarios

    ¿Lograste tocar?

    0 Tocaron 0 Aún no

    ¡Graba un video tocando Pobre Corazón y envíanoslo!

    00:00 / 00:00
    OK