Cifra Club

Escravos de Um Tempo

2 Polos

Cifrado: Principal (guitarra y guitarra eléctrica)
tono: Db
Intro: Db B  Gb  Ab


Db
Não sei
                       B
Se ainda há tempo pra dizer
                     Gb
Se o vento poderá trazer
                      Ab
Lembranças que você deixou
Db
Talvez
                       B
Não haja tempo pra te ver
                    Gb
O jeito é tentar vencer
                      Ab
Distância que nos separou
          Db            B
E mesmo sendo tão mais fácil
        Gb
Te esquecer
           Ab
Estando assim,
                    Db
Estando assim tão longe
         B
Eu não posso,
       F             Ab
Não desisto de ter você


E|------------------------------|--------------------------------|
B|------------------------------|--------------------------------|
G|--------12/13-11-------12/13--|-------10/11-10-------10/11-10--|
D|--10-11----------10-11--------|--9-11-----------9-11-----------|
A|------------------------------|--------------------------------|
E|------------------------------|--------------------------------|

E|-------------------------------|------------------------|
B|-------------------------------|------------------------|
G|-------------------------------|------------------------|
D|--11-10-8--10--11-10-8--8-8----|----10-11--11/13--13/15-|
A|----------------------------11-|-11---------------------|
E|-------------------------------|------------------------|


Db                             B
Estou sentindo falta de você aqui

Do gosto da sua boca
              Gb
Que ficou em mim

As cores desbotaram
              Ab
Como eu nunca vi
         Db             B
E mesmo sendo tão mais fácil
         Gb
Te esquecer
          Ab
Estando assim,
                   Db
Estando assim tão longe
         B
Eu não posso,
       Gb           Ab
Não desisto de ter você

        Db
Se não vier por acaso

Então vou atrás
           B
Quem foi feliz por um dia

Não esquece jamais
        Gb
Somos escravos de um tempo

Escravos de um tempo
   Ab
Escravos de um tempo


Solo que acontece por trás da última estrofe

E|------------------------------------------|-----------------------------------------|
B|------------------------------------------|-----------------------------------------|
G|--------13-10~~------10-11-13~~--11-10----|-------10-----------------10-------------|
D|--10/11-----------11-------------------11-|--9-11----11-11-11-9----9----11-11-11-9--|
A|------------------------------------------|---------------------11------------------|
E|------------------------------------------|-----------------------------------------|

E|------------------------------------------|
B|------------------------------------------|
G|------10-----------------11--11/13~~------|
D|----9----11-11-11-9----11-----------------|
A|--11-----------------11-------------------|
E|------------------------------------------|

        Db
Se não vier por acaso

Então vou atrás
           B
Quem foi feliz por um dia

Não esquece jamais
        Gb
Somos escravos de um tempo

Escravos de um tempo
   Ab                Db
Escravos de um tempo
00:00 / 00:00
Otros videos de esta canción
Repetir
Otros videos de esta canción
Composición de Alan Trindade / Eduardo Elali
Colaboración y revisión:
  • Gilson Feitosa
1 vistas
    • ½ Tono
    • A
    • Bb
    • B
    • C
    • Db
    • D
    • Eb
    • E
    • F
    • F#
    • G
    • Ab
  • Agregar a la lista

    0 comentarios

    Ver todos los comentarios

    ¿Lograste tocar?

    0 Tocaron 0 Aún no

    ¡Graba un video tocando Escravos de Um Tempo y envíanoslo!

    00:00 / 00:00
    OK