Cifra Club

Hesitar

2 Polos

Cifrado: Principal (guitarra y guitarra eléctrica)
tono: D
G7+                              D
Hoje o sol se pôs mais devagar
         D7+        Bm7
Esperando eu ter
      A               G9   G
Coragem pra dizer
               Em7        F#m7
Como é difícil ver
                G7+          A7
E não poder tocar você
               Em7        F#m7
Como eu queria ter
 G7+                      A7                      Bm 
Só uma chance 
A7                           Bm    A D G
De trazer você pra mim
Bm      A            D           G
Sendo assim eu vou tentar fazer
Bm      A            D           G
Meu melhor pra poder ter você
Bm     A                G       A    G           
Sendo assim não vou viver 

E|------------------------|
B|------------------------|
G|-----------------9~~~~--|
D|--9-12-9-12-9-12--------|
A|------------------------|
E|------------------------|

pra esquecer

E|-------------------------------------------|
B|-------------------------------------------|
G|-------------------------------------------|
D|--5/7~~~~--7/9-----------------------------|
A|---------------7h8h9--9b10r9b10r9b10r9b10--|
E|-------------------------------------------|

E|---------------------------------------|
B|---------------------------------------|
G|---------------------------------------|
D|--5/7~~~~--7/9-------------------------|
A|---------------7h8h9---------7---------|
E|----------------------5/7-10---5/7~~~--|

G7+            D
O meu coração acelerar
         D7+        Bm7
Ao te ouvir chegar
A       G7+              Bm        G7+
Me faz sentir um medo estranho de você
A       G7+              Bm        G7+
Como se eu não conseguisse me mover
      A       D
Faz hesitar dizer
               Em7        F#m7
Como é difícil ver
                G7+          A7
E não poder tocar você
               Em7        F#m7
Como eu queria ter
 G7+                      A7                      Bm 
Só uma chance 
A7                           Bm    A D G
De trazer você pra mim
Bm      A            D           G
Sendo assim eu vou tentar fazer
Bm      A            D           G
Meu melhor pra poder ter você
Bm     A                G       A    G           
Sendo assim não vou viver 

E|------------------------|
B|------------------------|
G|-----------------9~~~~--|
D|--9-12-9-12-9-12--------|
A|------------------------|
E|------------------------|

Sem você
G7+                                     D
Hoje o sol não vai me esperar
00:00 / 00:00
Otros videos de esta canción
Repetir
Otros videos de esta canción
Composición de Eduardo Elali
Colaboración y revisión:
  • Gilson Feitosa
  • 2polos
  • Marcus Barros
25 vistas
    • ½ Tono
    • A
    • Bb
    • B
    • C
    • Db
    • D
    • Eb
    • E
    • F
    • F#
    • G
    • Ab
  • Agregar a la lista

    0 comentarios

    Ver todos los comentarios

    ¿Lograste tocar?

    0 Tocaron 0 Aún no

    ¡Graba un video tocando Hesitar y envíanoslo!

    00:00 / 00:00
    OK