Cifra Club

Inércia

2 Polos

Cifrado: Principal (guitarra y guitarra eléctrica)
tono: A
[Intro] C#5  Fm  G#
        C#5  Fm  G#
        C#5  Fm  G#  C#5

E|-------------11p8-------|----------------------|
B|--9-11-9-11-------11-9--|--9-11-9--9h11-9-8~~--|
G|------------------------|----------------------|
D|------------------------|----------------------|
A|------------------------|----------------------|
E|------------------------|----------------------|

( C#5  Fm  G# )

C#
Vai saber
Fm     G#            C#
O que pode estar por vir

Decidir
Fm     G#            C#
Que já quero desvendar
                     Fm
Nada pode ficar como está
       G#                C#
Então deixe o meu mundo girar
                       Fm
E depois de tudo que andei
      G#                C#  Fm  G#
Eu preciso dizer o que sei

     C#
Há momentos que fecho meus olhos
                Fm
Pra ver que de perto
             G#                     C#
Que faz parecer que está tudo tão certo
                         Fm
O convés de um barco a virar
       G#                C#
Ver a chance de ali renascer
                         Fm
Falta tanto pro mundo acabar
       G#               C#  Bbm  G#  C#
Falta pouco pro mundo nascer

E|-----------------------------------------|
B|-----------------------------------------|
G|-----------------------------------------|
D|--9/11-10-----------------3/4-3----------|
A|----------11-11~~~~--4/6----------4-4~~~~|
E|-----------------------------------------|

Vou jogar
Fm        G#         C#
Bem mais alto dessa vez

Disfarçar
Fm      G#             C#
Se não tenho o ás e o rei
                         Fm
Não deixando a inércia fazer
     G#            C#
A vontade se esvaziar
                      Fm
Do passado não peço perdão
       G#            C#
Se preciso dizer o que.. ssss
Fm      G#
Êh, êh, ei

     C#
Há momentos que fecho meus olhos
                Fm
Pra ver que de perto
             G#                     C#
Que faz parecer que está tudo tão certo
                         Fm
O convés de um barco a virar
       G#                C#
Ver a chance de ali renascer
                         Fm
Falta tanto pro mundo acabar
       G#               C#  Bbm  G#  C#5
Falta pouco pro mundo nascer

( C#5  Fm  G# )
( C#5  Fm  G# )

E|-----------------------------------------|
B|-----------------------------------------|
G|-----------------------------------------|
D|--9/11-10-----------------3/4-3----------|
A|----------11-11~~~~--4/6----------4-4~~~~|
E|-----------------------------------------|

E|-----------------------------------|
B|--14/16~~--------------------------|
G|----------15~~--15/17~~------------| (4x)
D|-------------------------14/15~~---|
A|-----------------------------------|
E|-----------------------------------|

     C#
Há momentos que fecho meus olhos
                Fm
Pra ver que de perto
             G#                     C#
Que faz parecer que está tudo tão certo
                         Fm
O convés de um barco a virar
       G#                C#
Ver a chance de ali renascer
                         Fm
Falta pouco pro mundo acabar
       G#               C#  Fm  G#  C#
Falta tanto pro mundo nascer

E|-----------------------------------------|
B|-----------------------------------------|
G|-----------------------------------------|
D|--9/11-10-----------------3/4-3----------|
A|----------11-11~~~~--4/6----------4-4~~~~|
E|-----------------------------------------|

E|----------------------|-----------------|
B|----------------------|-----------------|
G|--12h13-12------------|-----------------|
D|------------15--------|------------10b--|
A|---------------15\13--|--13h15p13-------|
E|----------------------|-----------------|
00:00 / 00:00
Otros videos de esta canción
Repetir
Otros videos de esta canción
Composición de Eduardo Elali
Colaboración y revisión:
  • Gilson Feitosa
1 vistas
    • ½ Tono
    • A
    • Bb
    • B
    • C
    • Db
    • D
    • Eb
    • E
    • F
    • F#
    • G
    • Ab
  • Agregar a la lista

    0 comentarios

    Ver todos los comentarios

    ¿Lograste tocar?

    0 Tocaron 0 Aún no

    ¡Graba un video tocando Inércia y envíanoslo!

    00:00 / 00:00
    OK