Cifra Club

Reino da Ilusão

2 Polos

Cifrado: Principal (guitarra y guitarra eléctrica)
tono: G
Intro:
E9   Em   D   D4   E9   Em   D   D4
E5   G5   D5   A5   E5   C5   G5   A5   E9


E|---------------------|------------------------------------|
B|------7-8-7-8----------|--------7-8-7-8-1010b12r10-10-8---|
G|---9-7-------97---7-----|----7-99-------------------------|
D|--------------9---7---|--9--------------------------------|
A|---------------------|------------------------------------|
E|---------------------|------------------------------------|

Em               D
Quatro dias sem amanhecer
       D4            E9
O horizonte vai escurecer
Em               D
E o espelho do por do sol
D4          E9 Em
Vai esconder
         D                              D4
Vai esconder (e o espelho do por do sol)
         E9                   Em
Vai esconder (e o espelho do por do sol)
         D  D4
Vai esconder

  E5                                E5                D5
A porta desta sucursal sempre está aberta e unilateral
E5                                 E5                    D#5
Quando lavam sua mente, que fragilizada quase nunca sente
        E5
Anestesiada, segue sempre em frente
E5               D5
Condição racional
E5
Para nós crucial
          E5                 D#5
Nada mal! nada mal! nada mal!

             E5          G5
Bem vindo ao reino da ilusão
     D5              A5 G5
O silêncio é a nossa lei
             E5          C5
Bem vindo ao reino da ilusão
      G5
O que você fez?
           A5
Outra vez (outra vez)

Em   D   Em   D


E|---------------------|-------------------------------------------------|
B|------7-8-7-8----------|--------7-8-7-8-1010b12r10--10b12r10---8---~---|
G|---9-7-------97---7-----|----7-99-------------------7-------9~~--------|
D|--------------9---7---|--9---------------------------------------------|
A|---------------------|-------------------------------------------------|
E|---------------------|-------------------------------------------------|


Em               D
Quatro dias sem amanhecer
       D4            E9
O horizonte vai escurecer
Em               D
E o som desse carnaval
D4          E9 Em
Vai esconder
         D                              D4
Vai esconder (e o espelho do por do sol)
         E9                   Em
Vai esconder (e o espelho do por do sol)
         D  D4
Vai esconder
E5
Cofres e gavetas nuas, por trocados
E5                        D5
Grupos dividindo as ruas, confrontados
E5
Ele posa de inocente
            E5                  D#5
Quase sempre vítima inconsciente
         E5
Cabeça vazia, coração não sente
E5               D5
Condição racional
E5
Para nós crucial
          E5                 D#5
Nada mal! nada mal! nada mal!

             E5          G5
Bem vindo ao reino da ilusão
     D5              A5
O silêncio é a nossa lei
             E5          C5
Bem vindo ao reino da ilusão
      G5
O que você fez?
           A5
Outra vez (outra vez)

Solo: E5   G5   D5   A5   E5   C5   G5   A5

Riff: E5   E5   D5   E5   E5   D#5




E|-----------------------------|-------------------------|
B|--7/8---9/10----10/12--------|---7/8---9/10------------|
G|------7------9--------9--10--|------7------9--7-7/9-9--|
D|-----------------------------|-------------------------|
A|-----------------------------|-------------------------|
E|-----------------------------|-------------------------|

E|----------------------------------|
B|-----------10-8-------------------|
G|--7~~-9~~-------11-11-12----------|
D|-------------------------12-9~~---|
A|----------------------------------|
E|----------------------------------|

  E5                                                    D5
A greve na educação ainda não nos traz tanta preocupação
  E5                                               D#5
O sonho do maracanã é que merece toda nossa atenção
E5            G5         A5                A#5
Traga mais um pouco de ração, que eu vou comer
E5          A#5            A5                   G5
Cole o meu olhar na luz do sol, que é pra eu não ver
E5             G5              D5          E5
Traga qualquer coisa que eu prometo pra você

Riff:
(D5  E5   A5   A#5   A5   G5 /  D5  E5   A#5   A5   G5   A5   G5   D5) 4x

             E5          G5
Bem vindo ao reino da ilusão
     D5              A5
O silêncio é a nossa lei
             E5          C5
Bem vindo ao reino da ilusão
      G5
O que você fez?
           A5
Outra vez (outra vez)

             E5          G5
Bem vindo ao reino da ilusão
     D5              A5
O silêncio é a nossa lei
             E5          C5
Bem vindo ao reino da ilusão
      G5
O que você fez?
           A5
Outra vez (outra vez)
00:00 / 00:00
Otros videos de esta canción
Repetir
Otros videos de esta canción
Composición de Alan Trindade / Eduardo Elali / Vittor Melo
Colaboración y revisión:
  • Gilson Feitosa
  • 2polos
41 vistas
    • ½ Tono
    • A
    • Bb
    • B
    • C
    • Db
    • D
    • Eb
    • E
    • F
    • F#
    • G
    • Ab
  • Agregar a la lista

    0 comentarios

    Ver todos los comentarios

    ¿Lograste tocar?

    0 Tocaron 0 Aún no

    ¡Graba un video tocando Reino da Ilusão y envíanoslo!

    00:00 / 00:00
    OK