Cifra Club

Um Novo Tempo

2 Polos

Cifrado: Principal (guitarra y guitarra eléctrica)
tono: D
Intro: 

E|-------------------------------------------|
B|-------------------------------------------|
G|-------------------------------------------|
D|-----------------------------------9-9-7---|
A|--------9-9--------------------9-9---------|
E|--10-10-----7-7--10-9-5--10-10-------------|

Dm                         F
Estive tão confuso esses dias por aqui
  Bb7+
E nada me parece bem claro
Dm                       F
Passei dias triste sem saber aonde ir
  Bb7+
E um sorriso em mim é tão raro
Dm                      F
Mas se tudo já virou passado
 Bb7+                     Bb9
É porque hoje eu estou mudado
Dm                       F
Mas se tudo já virou passado
Bb7+
É porque estou em paz
Bb9             Bb7+
Porque estou em paz

Refrão:
   Dm      F              Bb7+
E eu não vejo a hora de te ver
Bb      Bb9            Dm
Me sinto tão bem com você
    F            Bb
Um novo tempo começou
  Dm      F             Bb7+
Vai ser melhor pra nós estar assim
Bb      Bb9             Dm
Bom pra você e bom pra mim
   F        Bb9    Bb7+
Um recomeço de nós dois

Riff
Verso
Solo


E|----------------------------------------------------|
B|----------------------------------------------------|
G|----------------------------------------------------|
D|--9-11-12-11----9-11h12-11---------9-11-12-11-------|
A|-------------12-------------12-9--------------12-9--|
E|----------------------------------------------------|

E|----------------------------------------------------|
B|----------------------------------------------------|
G|-9-9-9-------------------------8/9-11---------------|
D|-------12-12-12-9-9-9-12-12-12----------------------|
A|---------------------------------------9-12-9----9--|
E|----------------------------------------------12----|

E|----------------------------------------------------|
B|----------------------------------------------------|
G|----------------------8/9-7-----------------9h11-9--|
D|-------8/9--------8/9----------8/9--9p7-------------|
A|--9-12-----12---9------------9----------9-----------|
E|----------------------------------------------------|

E|----------------------------------------|
B|----------------------------------------|
G|----------------------------------------|
D|------------9--9---------9--------------|
A|--9-12-9-12------12-9------12-9---------|
E|----------------------------------------|

E|----------------------------------------|
B|----------------------------------------|
G|----------------------------------------|
D|------------9----------9-11h12-11----9--|
A|--9-12-9-12----12-9-12------------12----|
E|----------------------------------------|

E|-------------------------------------------|
B|-------------------------------------------|
G|-------------------------------------------|
D|-----------------------------------9-9-7---|
A|--------9-9--------------------9-9---------|
E|--10-10-----7-7--10-9-5--10-10-------------|


        Dm              F
E eu não vou me perdoar se eu
      Bb             Bb9
Não souber cuidar de seu amor
       Dm              F
E eu não vou me perdoar se eu
      Bb           Bb9
Não souber cuidar

(Refrão)
00:00 / 00:00
Otros videos de esta canción
Repetir
Otros videos de esta canción
Composición de Eduardo Elali
Colaboración y revisión:
  • Gilson Feitosa
  • Marcus Barros
26 vistas
    • ½ Tono
    • A
    • Bb
    • B
    • C
    • Db
    • D
    • Eb
    • E
    • F
    • F#
    • G
    • Ab
  • Agregar a la lista

    0 comentarios

    Ver todos los comentarios

    ¿Lograste tocar?

    0 Tocaron 0 Aún no

    ¡Graba un video tocando Um Novo Tempo y envíanoslo!

    00:00 / 00:00
    OK