Cifra Club

Democracy

28 Days

Cifrado: Principal (guitarra y guitarra eléctrica)
tono: Am
Intro:
E|-----------------------------|-----------------------------|
B|-----------------------------|-----------------------------|
G|-----------------------------|-----------------------------|   (1x)
D|-------7-7-----------5-5-----|-------7-7-----------5-5-2-3-|
A|-5-5-x-5-5-(5)-7-7-x-3-3-2-3-|-5-5-x-5-5-(5)-7-7-x-3-3-2-3-|
E|-3-3-x-----(5)-5-5-x-----0-1-|-3-3-x-----(5)-5-5-x-----0-1-|
. .

Refrão:
E|-----------------------------------|
B|-----------------------------------|
G|-------------7-7-7-------5-5-5-----|   (4x)
D|-5-5---------7-7-7-7-7-7-5-5-5-2-3-|
A|-5-5-2h3-2h3-5-5-5-7-7-7-3-3-3-2-3-|
E|-3-3---------------5-5-5-------0-1-|
. .

Verso:
E|----------------------------|----------------------------|
B|----------------------------|----------------------------|
G|-0-4-0-4-0-4-5-5-4-0-4-0-4~-|-0-4-0-4-0-4-7-7-5-4-5-4-0~-| (2x)
D|----------------------------|----------------------------|
A|----------------------------|----------------------------|
E|----------------------------|----------------------------|

Verso 2:
E|----------------------------|----------------------------|
B|----------------------------|----------------------------|
G|-0-4-0-4-0-4-5-5-4-0-4-0-4~-|-0-4-0-4-0-4-7-7-5-4-5-4-0~-|
D|----------------------------|----------------------------|
A|----------------------------|----------------------------|
E|----------------------------|----------------------------|

E|----------------------------|----------------------------|
B|----------------------------|----------------------------|
G|-0-4-0-4-0-4-5-5-4-0-4-0-4~-|-0-4-0-4-0-4-5-_------------|
D|----------------------------|----------------------------|
A|----------------------------|----------------------------|
E|----------------------------|----------------------------|

Interludio:
E|-----------------|-----------------------------|------------|
B|-----------------|-----------------------------|------------|
G|-7-7-7-7-5-5-5-5-|-0-0-0-0-0-2-0-0-0-2-4-5-4-0-|-7-7-7-7-5~-|
D|-7-7-7-7-5-5-5-5-|-----------------------------|-7-7-7-7-5~-|
A|-5-5-5-5-3-3-3-3-|-----------------------------|-5-5-5-5-3~-|
E|-----------------|-----------------------------|------------|
 

Outro:
E|-----------------------------|----|
B|-----------------------------|----|
G|-----------------------------|----|
D|-------7-7-----------5-5-2-3-|-5~-|
A|-5-5-x-5-5-(5)-7-7-x-3-3-2-3-|-5~-|
E|-3-3-x-----(5)-5-5-x-----0-1-|-3~-|
Compositor não encontrado.
Colaboración y revisión:
  • Jefferson Sousa
21 vistas
    • ½ Tono
    • Am
    • Bbm
    • Bm
    • Cm
    • C#m
    • Dm
    • Ebm
    • Em
    • Fm
    • F#m
    • Gm
    • G#m
  • Agregar a la lista

    0 comentarios

    Ver todos los comentarios

    ¿Lograste tocar?

    0 Tocaron 0 Aún no

    ¡Graba un video tocando Democracy y envíanoslo!

    00:00 / 00:00
    Outros vídeos desta música
    Repetir Calidad Automático
    Outros vídeos desta música
    00:00 / 00:00
    Automático
    OK