Cifra Club

Say What

28 Days

Cifrado: Principal (guitarra y guitarra eléctrica)
tono: D
Riff 1:
E|------------------------------------|
B|------------------------------------|
G|--7/9--9-7/9-9-9-9-7/9--9-7--6-6-6--|
D|--7/9--9-7/9-9-9-9-7/9--9-7--6-6-6--|
A|--5/7--7-5/7-7-7-7-5/7--7-5--4-4-4--|
E|------------------------------------|

Refrão:
E|-------------------------------------------------------------------------------------|
B|-------------------------------------------------------------------------------------|
G|-------------------------------------------------------------------------------------|
D|-------------------------------------------------------------------------------------|
A|--7*-7/5--5-5--5--5-5-2--2--2-5-5--5--2-5--7--7/5--5-5--5--5-5-2--2------------------|
E|--5*-5/3--3-3--3--3-3-0--0--0-3-3--3--0-3--5--5/3--3-3--3--3-3-0--0--x-x-x-x-x-x-x-x-|

E|-------------------------------------------------------------------------------------|
B|-------------------------------------------------------------------------------------|
G|-------------------------------------------------------------------------------------|
D|---------------------------------------------------------------------7-7--7--7-7-----|
A|--7*-7/5--5-5--5--5-5-2--2--2-5-5--5--2-5--7--7/5--5-5--5--5-5-9--9--5-5--5--5-5-----|
E|--5*-5/3--3-3--3--3-3-0--0--0-3-3--3--0-3--5--5/3--3-3--3--3-3-7--7------------------|
Compositor não encontrado.
Colaboración y revisión:
  • Jefferson Sousa
23 vistas
    • ½ Tono
    • A
    • Bb
    • B
    • C
    • Db
    • D
    • Eb
    • E
    • F
    • F#
    • G
    • Ab
  • Agregar a la lista

    0 comentarios

    Ver todos los comentarios

    ¿Lograste tocar?

    0 Tocaron 0 Aún no

    ¡Graba un video tocando Say What y envíanoslo!

    00:00 / 00:00
    Outros vídeos desta música
    Repetir Calidad Automático
    Outros vídeos desta música
    00:00 / 00:00
    Automático
    OK