Cifra Club

Only You

2PM

Cifrado: Principal (guitarra y guitarra eléctrica)
tono: Bb (con acordes en la forma de G) Capotraste en 3ª casa
E|-----------------------------------------------------------
B|-3-----3--0-1-1/3----1-0--1-----1---0-----1h0-----0--------
G|-2---2-------------0----------0---2-------0---2-------0-0h2
D|---0-------------0----------2-----------0-------0---0------
A|-2------------------------0-----------3--------------------
E|---------------0----------------------------------3--------

E|-------------------------------3-----2-|
B|-----------------------3-------3-----3-|
G|-0-2-2/4---0-2-0-2---2-2-2---2-----2---|
D|---------0-------0-0-------0-----0-----|
A|---------------------------------------|
E|-----0---------------------------------|


Refrão: Bm Em Am C Em Am C D

Verso: G Em Am C Em Am C D
00:00 / 00:00
Otros videos de esta canción
Repetir
Otros videos de esta canción
Composición de Park Jinyoung
Colaboración y revisión:
  • Barbara R.
113 exhibiciones
    • ½ Tono
    • A
    • Bb
    • B
    • C
    • Db
    • D
    • Eb
    • E
    • F
    • F#
    • G
    • Ab
  • Agregar a la lista
    00:00 / 00:00
    OK