Cifra Club

Dawn Will Rise

Thirty Seconds To Mars

Cifrado: Principal (guitarra y guitarra eléctrica)
tono: B
[Intro]

E|-------------------------------------------------|
B|-------------------------------------------------|
G|-------------------------------------------------|
D|-------------------------------------------------|    
A|----4-----4-----4-----4-----4-----4-----4-----4--|
E|-6-----6-----6-----6-----2-----2-----2-----2-----|

E|-------------------------------------------------|
B|-------------------------------------------------|
G|-------------------------------------------------|
D|-------------------------------------------------|    
A|----4-----4-----4-----4-----4-----4-----4-----4--|
E|-6-----6-----6-----6-----2-----2-----2-----2-----|

A#
The truth comes quickly, I found out
F#
The future's swiftly, time runs it down
A#
A liar's litany without a doubt
F#
Come and hit me, strike me while I'm down

         G#
Fortune's fade in time
       F#
I must change or die
          A#
Change or die
          F#
Change or die

A#
Silent secrets, quiet hands
F#
I know their story, an old romance
A#
Come and kill me while you can
F#
I will take you, this is our last dance

         G#
Fortune's fade in time
       F#
I must change or die
               A#
Dawn will rise
           F#
Dawn will rise
               A#
Dawn will rise

( A#  F# )
( A#  F# )

         G#
Fortune's fade in time
       F#
I must change or die
         G#
Fortune's fade in time
       F#
I must change or die

Dawn will raise
Compositor não encontrado.
Colaboración y revisión:
  • Sônia Mendonça
4 vistas
    • ½ Tono
    • A
    • Bb
    • B
    • C
    • Db
    • D
    • Eb
    • E
    • F
    • F#
    • G
    • Ab
  • Agregar a la lista

    0 comentarios

    Ver todos los comentarios

    ¿Lograste tocar?

    0 Tocaron 1 Aún no

    ¡Graba un video tocando Dawn Will Rise y envíanoslo!

    00:00 / 00:00
    Outros vídeos desta música
    Repetir Calidad Automático
    Outros vídeos desta música
    00:00 / 00:00
    Automático
    OK