Cifra Club

From Yesterday

Thirty Seconds To Mars

Cifrado: Versão 4 (guitarra y guitarra eléctrica)
tono: Bb
Standard Tuning

Intro: (Delay/chorus type of effect)
Piano fades into guitar (0:18) (Repetir até o Chorus)
e|----------|----------------------------------------------------|
B|--p-------|----------------------------------------------------|
G|--i-------|----------------------------------------------------|
D|--a--Then-|-----8----8----8----8----8----8----8----8----8----8-|
A|--n-------|--666--666--666--666--666--555--555--555--555--555--|
E|--o-------|----------------------------------------------------|

Chorus:(1:01) 2x
         Bb5               F5              G5               Eb5
e|---------------------------------------------------------------------|
B|---------------------------------------------------------------------|
G|----------------------------------------------------8888888888888888-|
D|-8888888888888888-3333333333333333-5555555555555555-8888888888888888-|
A|-8888888888888888-3333333333333333-5555555555555555-6666666666666666-|
E|-6666666666666666-1111111111111111-3333333333333333------------------|

Verse (1:31) 2x
e|----------------------------------------------------|
B|----------------------------------------------------|
G|----------------------------------------------------|
D|-----8----8----8----8----8----8----8----8----8----8-|
A|--666--666--666--666--666--555--555--555--555--555--|
E|----------------------------------------------------|

Depois do  Verse (1:45) 2x
e|-------------------------------------------------|
B|-------------------------------------------------|
G|-------------------------------------------------|
D|-------------------------------------------------|
A|-6-6-6-6-6-6--6-6-6-6-6~-5-5-5-5-5-5--5-5-5-5-6~-|
E|-------------------------------------------------|
PM . . . . . .  . . . .    . . . . . .  . . . .

Chorus (2:00)
         Bb5               F5              G5               Eb5
e|---------------------------------------------------------------------|
B|---------------------------------------------------------------------|
G|----------------------------------------------------8888888888888888-|
D|-8888888888888888-3333333333333333-5555555555555555-8888888888888888-|
A|-8888888888888888-3333333333333333-5555555555555555-6666666666666666-|
E|-6666666666666666-1111111111111111-3333333333333333------------------|

Bridge (2:28)
     F5
E|-------------------------------------------------|
B|-------------------------------------------------|
G|-10-10-10-10-10-10-10-10-10-10-10-10-10-10-10-10-|
D|--x--x--x--x--x--x--x--x--x--x--x--x--x--x--x--x-|
A|--8--8--8--8--8--8--8--8--8--8--8--8--8--8--8--8-|
E|-------------------------------------------------|

E|---------------------------------------------|
B|---------------------------------------------|
G|------7-7-8-10--7-7-7-7--8-10-------8-8--7-7-|
D|-8-8--x-x-x-x---x-x-x-x--x-x---8-8--x-x--x-x-|
A|-8-8--5-5-6-8---5-5-5-5--6-8---8-8--6-6--5-5-|
E|-6-6---------------------------6-6-----------|
                                             3x|

E|------------------------------------------------------|
B|------------------------------------------------------|
G|------7-7--8-10-10-10-10-10-10-10-10---12-12-12-12-12-|
D|-8-8--x-x--x-x---x--x--x--x--x--x--x----x--x--x--x--x-|
A|-8-8--5-5--6-8---8--8--8--8--8--8--8---10-10-10-10-10-|
E|-6-6--------------------------------------------------|

Chorus (3:00) 4x
         Bb5               F5              G5               Eb5
e|---------------------------------------------------------------------|
B|---------------------------------------------------------------------|
G|----------------------------------------------------8888888888888888-|
D|-8888888888888888-3333333333333333-5555555555555555-8888888888888888-|
A|-8888888888888888-3333333333333333-5555555555555555-6666666666666666-|
E|-6666666666666666-1111111111111111-3333333333333333------------------|

          F5
E|--------------------------------------------------|
B|--------------------------------------------------|
G|--10-10-10-10-10-10-10-10-10-10-10-10-10-10-10-10-|
D|--10-10-10-10-10-10-10-10-10-10-10-10-10-10-10-10-|
A|---8--8--8--8--8--8--8--8--8--8--8--8--8--8--8--8-|
E|--------------------------------------------------|

Outro (4:00)
e|------------------------------------|
B|------------------------------------|
G|------7-7--8-10--7-7-7-7--8-10------|
D|-8-8--x-x--x-x---x-x-x-x--x-x---8-8-|
A|-8-8--5-5--6-8---5-5-5-5--6-8---8-8-|
E|-6-6----------------------------6-6-|
Composición de 30 Seconds to Mars
Colaboración y revisión:
  • Richard Harrisson
36 vistas
    • ½ Tono
    • A
    • Bb
    • B
    • C
    • Db
    • D
    • Eb
    • E
    • F
    • F#
    • G
    • Ab
  • Agregar a la lista

    0 comentarios

    Ver todos los comentarios

    ¿Lograste tocar?

    0 Tocaron 0 Aún no

    ¡Graba un video tocando From Yesterday y envíanoslo!

    00:00 / 00:00
    Outros vídeos desta música
    Repetir Calidad Automático
    Outros vídeos desta música
    00:00 / 00:00
    Automático
    OK