Cifra Club

From Yesterday

Thirty Seconds To Mars

Cifrado: Versão 8 (guitarra y guitarra eléctrica)
Acompaña nuestras novedades de Cifra Club en español.
¡Sigue nuestro perfil en Instagram!
tono: B


INTRO VERSE 1
Eb|-------------------------------------------------|
Bb|-------------------------------------------------|
Gb|-------------------------------------------------|
Db|-------9---9---9---9---9-----9---9---9---9---9---|
Ab|-----77--77--77--77--77--7-66--66--66--66--66-6--|
Eb|-------------------------------------------------|

CHORUS 1

Eb|--------------------------------------------|
Bb|--------------------------------------------|
Gb|--------------------------------------------|
Db|----9--4--6--2----9--4--2--4----------------|
Ab|----9--4--6--2----9--4--2--4----------------|
Eb|----7--2--4--0----7--2--0--2----------------|

Verse 2
Eb|-------------------------------------------------|
Bb|-------------------------------------------------|
Gb|-------------------------------------------------|
Db|-------9---9---9---9---9-----9---9---9---9---9---|
Ab|-----77--77--77--77--77--7-66--66--66--66--66-6--|
Eb|-------------------------------------------------|

PRE CHORUS ( verse 2 )
Eb|--------------------------------------------|
Bb|--------------------------------------------|
Gb|--------------------------------------------|
Db|--------------------------------------------|
Ab|----777777-7-7-777-(7)--666666-6-6-666-(6)--|
Eb|--------------------------------------------|

CHORUS 2

Eb|--------------------------------------------|
Bb|--------------------------------------------|
Gb|----------------------------9--11-----------|
Db|----9--4--6--2----9--4--2---9--11-----------|
Ab|----9--4--6--2----9--4--2---7--9------------|
Eb|----7--2--4--0----7--2--0-------------------|

BRIDGE

Eb|---------------------------------------------------------|
Bb|---------------------------------------------------------|
Gb|---------------------------------------------------------|
Db|-------8-8-(9)-9--8-8-8-8-(9)-9-9------------------------|
Ab|--6-6--6-6/(7)-7--6-6-6-6/(7)-7-7----2-2---9-9-8-8-------|
Eb|--4-4--------------------------------0-0---7-7-6-6-------|

Eb|---------------------------------------------------------|
Bb|---------------------------------------------------------|
Gb|---------------------------------------------------------|
Db|-------8-8-(9)-9--8-8-8-8-(9)-9-9------------------------|
Ab|--6-6--6-6/(7)-7--6-6-6-6/(7)-7-7----2-2---9-(9)-8-(8)---|
Eb|--4-4--------------------------------0-0---7-(7)-6-(6)---|

Eb|---------------------------------------------------------|
Bb|---------------------------------------------------------|
Gb|---------------------------------------------------------|
Db|-------8-8-(9)-9--8-8-8-8-(9)-9-9------------------------|
Ab|--6-6--6-6/(7)-7--6-6-6-6/(7)-7-7----2-2---9-9-8-8-------|
Eb|--4-4--------------------------------0-0---7-7-6-6-------|

Eb|---------------------------------------------------------|
Bb|---------------------------------------------------------|
Gb|---------------------------------------------------------|
Db|-------8-8-(9)-9--8-8-8-8-(9)-9-9----4444444444444-------|
Ab|--6-6--6-6/(7)-7--6-6-6-6/(7)-7-7----4444444444444-------|
Eb|--4-4--------------------------------2222222222222-------|

CHORUS

Eb|--------------------------------------------|
Bb|--------------------------------------------|
Gb|--------------------------------------------|
Db|----9--4--6--2----9--4--2--4----------------|
Ab|----9--4--6--2----9--4--2--4----------------|
Eb|----7--2--4--0----7--2--0--2----------------|

Eb|--------------------------------------------|
Bb|--------------------------------------------|
Gb|----------------------------9--11-----------|
Db|----9--4--6--2----9--4--2---9--11-----------|
Ab|----9--4--6--2----9--4--2---7--9------------|
Eb|----7--2--4--0----7--2--0-------------------|

Eb|--------------------------------------------|
Bb|--------------------------------------------|
Gb|--------------------------------------------|
Db|-------8-8--9--9--8-8-8-8--9--9-9-----------|
Ab|--6-6--6-6/(7)-7--6-6-6-6/(7)-7-7----2-2----|
Eb|--4-4--------------------------------0-0----|

Pasko
Have Fun
Composición de 30 Seconds to Mars
4 vistas
    • ½ Tono
    • A
    • Bb
    • B
    • C
    • Db
    • D
    • Eb
    • E
    • F
    • F#
    • G
    • Ab
  • Agregar a la lista

    0 comentarios

    Ver todos los comentarios

    ¿Lograste tocar?

    0 Tocaron 0 Aún no

    ¡Graba un video tocando From Yesterday y envíanoslo!

    00:00 / 00:00
    Outros vídeos desta música
    Repetir Calidad Automático
    Outros vídeos desta música
    00:00 / 00:00
    Automático
    OK