Cifra Club

From Yesterday

Thirty Seconds To Mars

Tab de bajo: Principal
This Song Is Very Easy On Bass.

Tuning: DADG-From Lowest To Highest

Piano/Guitar Intro

             Verse
G---------------------------------|
D---------------------------------|(*2)
A--6(*16)--10(*16)----------------|
D---------------------------------|

            Pre-Chorus
G-------------------------------------|
D-------------------------------------|
A--66-----10-10---66--6/10(*16)-------|
D-------------------------------------|

            Chorus
G---------------------------------|
D---------------------------------|
A-------------------------6(*16)--|
D-8(*16)--3(*16)--5(*16)----------|

G---------------------------------|
D---------------------------------|
A---------------------------------|
D-8(*16)--3(*16)--1(*16)--3(*16)--|

            Verse 2
G------------------------------|
D------------------------------|(*2)
A--6(*16)--10(*16)-------------|
D------------------------------|

           Pre-Chorus 2
G------------------------------|
D------------------------------|
A--66--10-10--66--6h8h910(*16)-|
D------------------------------|

           Chrous 2
G---------------------------------|
D---------------------------------|
A--------------------------6(*16)-|
D--8(*16)--3(*16)--5(*16)---------|

G---------------------------------|
D---------------------------------|
A---------------------------------|
D--8(*16)--3(*16)--1(*32)--3(*16)-|

           Bridge
G------------------------------------------------------|
D--12-12--12-12-13-13--12-12-12-13-13/88-----88-77-----|
A-------------------------------------------------(*3)-|
D------------------------------------------------------|

G-----------------------------------------------|
D--12-12--12-12-13-13--12-12-12-13-13/8(*13)----|
A-----------------------------------------------|
D-----------------------------------------------|

          Chorus 3/Outro
G-----------------------------------------------|
D-----------------------------------------------|
A--------------------------6(*16)---------------|
D--8(*16)--3(*16)--5(*16)-----------------------|

G-----------------------------------------------|
D-----------------------------------------------|
A-----------------------------------------------|
D--8(*16)--3(*16)--1(*16)--3(*16)---------------|

G-----------------------------------------------|
D-----------------------------------------------|
A--------------------------6(*16)---------------|
D--8(*16)--3(*16)--5(*16)-----------------------|

G-----------------------------------------------|
D-----------------------------------------------|
A--------------------------6(*16)--8(*16)-------|
D--8(*16)--3(*16)-1(*16)------------------------|

G-----------------------------------------------|
D--12-12--12-12-13-13--12-12-12-13-13/88--------|
A-----------------------------------------------|
D-----------------------------------------------|


Like I Said Befroe, This Song Is Easy As All Hell.
All I Had To Do Was Go Off The Guitar Tabs, And I Figured It Out In 15 Minutes.

Have Fun Playing This Song!!!
Composición de 30 Seconds to Mars
452 vistas

0 comentarios

Ver todos los comentarios

¿Lograste tocar?

0 Tocaron 0 Aún no

¡Graba un video tocando From Yesterday y envíanoslo!

00:00 / 00:00
Outros vídeos desta música
Repetir Calidad Automático
Outros vídeos desta música
00:00 / 00:00
Automático
OK