Cifra Club

The Kill

Thirty Seconds To Mars

Cifrado: Principal (guitarra y guitarra eléctrica)
Acompaña nuestras novedades de Cifra Club en español.
¡Sigue nuestro perfil en Instagram!
tono: G
   C5
E|----------------------------------------------------|
B|-----0-------0-------0-------0----------------------|
G|----------------------------------------------------|
D|---5---5---5---5---5---5---5---5--------------------|
A|-3-------3-------3-------3--------------------------|
E|----------------------------------------------------|

   D5
E|----------------------------------------------------|
B|-----0-------0-------0-------0----------------------|
G|----------------------------------------------------|
D|---7---7---7---7---7---7---7---7--------------------|
A|-5-------5-------5-------5--------------------------|
E|----------------------------------------------------|

   E5
E|----------------------------------------------------|
B|-----0-------0-------0-------0----------------------|
G|----------------------------------------------------|
D|---9---9---9---9---9---9---9---9--------------------|
A|-7-------7-------7-------7--------------------------|
E|----------------------------------------------------|

   B5
E|----------------------------------------------------|
B|-----0-------0-------0-------0----------------------|
G|----------------------------------------------------|
D|---4---4---4---4---4---4---4---4--------------------|
A|-2-------2-------2-------2--------------------------|
E|----------------------------------------------------|

[Primeira Parte]

C5                      D5
  What if I wanted to break
                     E5
Laugh it all off in your face
                B5
What would you do?
C5                        D5
  What if I fell to the floor
                           E5
Couldn't take all this anymore
                B5
What would you do, do, do?

[Refrão]

 C5            D5
Come break me down 

And bury me, bury me
E5                  B5
I am finished with you

E|----------------------------------------------------|
B|----------------------------------------------------|
G|-12p9-----------12p9--------------------------------| (2x)
D|------10p9----9------10p9----9----------------------|
A|-----------10-------------10------------------------|
E|----------------------------------------------------|

E|----------------------------------------------------|
B|----------------------------------------------------|
G|---------12---------12---------12---------12--------|
D|-9h10-10----9h10-10----9h10-10----9h10-10-----------|
A|----------------------------------------------------|
E|----------------------------------------------------|

E|----------------------------------------------------|
B|----------------------------------------------------|
G|-12p9-----------12p9--------------------------------| (2x)
D|------10p9----9------10p9----9----------------------|
A|-----------10-------------10------------------------|
E|----------------------------------------------------|

E|----------------------------------------------------|
B|---------------------------------10----------12-----|
G|---------12----------12-----------------------------|
D|-9h10-10-----9h10-10-----9h10-10-----9h10-10--------|
A|----------------------------------------------------|
E|----------------------------------------------------|

[Segunda Parte]

C5                     D5
  What if I wanted to fight
                        E5
Beg for the rest of my life
                B5
What would you do?
     C5
You say you wanted more
  D5
What are you waiting for?
E5                    B5
I'm not running from you

[Refrão]

 C5            D5
Come break me down 

And bury me, bury me
E5                  B5
I am finished with you
 C5        D5
Look in my eyes 

You're killing me, killing me
E5                B5
All I wanted was you

[Ponte]

A5               B5     E5
  I tried to be someone else
                       C5       D5
But nothing seems to change I know now
  E5      F#5  G5    A5
This is who I really am
   C5             B5    D5  E5  
Inside I finally found my--self  
                 C5       D5
Fighting for a chance I know now
  E5
This is who I really am

( E5 )

   B5
E|----------------------------------------------------|
B|----------------------------------------------------|
G|-16--16-16-16-16--16--16-16-16-16-------------------|
D|----------------------------------------------------|
A|-14--14-14-14-14--14--14-14-14-14-------------------|
E|----------------------------------------------------|

   A5               G5
E|----------------------------------------------------|
B|----------------------------------------------------|
G|-14--14-14-14-14--12--12-12-12-12-------------------|
D|----------------------------------------------------|
A|-12--12-12-12-12--10--10-10-10-10-------------------|
E|----------------------------------------------------|

E|-7----7----7----10----|
B|---10---10---10---10--|
G|----------------------|
D|----------------------|
A|----------------------|
E|----------------------|

[Refrão]

 C5            D5
Come break me down 

And bury me, bury me
E5                  B5
I am finished with you
 C5        D5
Look in my eyes 

You're killing me, killing me
E5                B5
All I wanted was you

 C5            D5
Come break me down
          E5
Break me down
          B5
Break me down

[Final]

E|----------------------------------------------------|
B|----------------------------------------------------|
G|-12p9-----------12p9--------------------------------| (2x)
D|------10p9----9------10p9----9----------------------|
A|-----------10-------------10------------------------|
E|----------------------------------------------------|

E|----------------------------------------------------|
B|----------------------------------------------------|
G|---------12---------12---------12---------12--------|
D|-9h10-10----9h10-10----9h10-10----9h10-10-----------|
A|----------------------------------------------------|
E|----------------------------------------------------|

E|----------------------------------------------------|
B|----------------------------------------------------|
G|-12p9-----------12p9--------------------------------| (2x)
D|------10p9----9------10p9----9----------------------|
A|-----------10-------------10------------------------|
E|----------------------------------------------------|

E|----------------------------------------------------|
B|---------------------------------10----------12-----|
G|---------12----------12-----------------------------|
D|-9h10-10-----9h10-10-----9h10-10-----9h10-10--------|
A|----------------------------------------------------|
E|----------------------------------------------------|

What if I 
Wanted to break
What if I
What if I
Composición de Jared Leto
24.566 vistas
    • ½ Tono
    • A
    • Bb
    • B
    • C
    • Db
    • D
    • Eb
    • E
    • F
    • F#
    • G
    • Ab
  • Agregar a la lista

    0 comentarios

    Ver todos los comentarios

    ¿Lograste tocar?

    84 Tocaron 4 Aún no

    ¡Graba un video tocando The Kill y envíanoslo!

    00:00 / 00:00
    Outros vídeos desta música
    Repetir Calidad Automático
    Outros vídeos desta música
    00:00 / 00:00
    Automático
    OK