Enviar cifraEntrar

The Kill

30 Seconds To Mars

Acordes: Principal
reproducciones 12.140
Tono: G

     C   D   E   B   Em
E|-x---x---x---x---0-------|
B|-0---0---0---0---0-------|
G|-0---0---0---0---2-------|
D|-5---5---5---5---2-------|
A|-3---5---7---2---0-------|
E|-----------------0-------|


C                        D
     What if I wanted to break
                         Em
Laugh it all off in your face
              Bm
What would you do?
C                          D
     What if I fell to the floor
                          Em
Couldn't take all this anymore
              Bm
What would you do, do, do?

C             D
Come break me down and bury me, bury me
Em                 Bm
I am finished with you

           (2x)                        (2x)

E|------------------------|---------------------------|
B|------------------------|---------------------------|
G|-12-9-------12-9--------|---------12---------12(14)-|
D|-----10-9--9----10-9--9-|-9h10-10----9h10-10--------|
A|---------10---------10--|---------------------------|
E|------------------------|---------------------------|


C                   D
 What if I wanted to fight
                       Em
Beg for the rest of my life
              Bm
What would you do?
C
You say you wanted more
D
 What are you waiting for?
Em                  Bm
I'm not running from you (from you)

C             D
Come break me down and bury me, bury me
Em                 Bm
I am finished with you
C          D
Look in my eyes You're killing me, killing me
Em               Bm
All I wanted was you


   C             Bm       Em
   I tried to be someone else
                        C        D
   But nothing seems to change I know now


        E         F#*      G*       A*
E|----------------------------------------|
B|--0-0--0--0-0--0--0--0--0--0--0--0--0---|
G|--9-9--9--9-11-11-11-12-12-12-14-14-14--|
D|--9-9--9--9-11-11-11-12-12-12-14-14-14--|
A|--7-7--7--7-9--9--9--10-10-12-12-12-12--|
E|----------------------------------------|

    This  is  who  I   really   am

  C            Bm       D   Em                   C         D       Esse D que fica no "myself" é em Power Chord
Inside  I finally found myself  Fighting for a chance  I know now,
Em
This  is  who  I  really  am


                             B
E|--X-X-X---X-X-X--------------|
B|--X-X-X---X-X-X-----X--X-X---|
G|--X-X-X---X-X-X-----9--9-9---| (3x)
D|--------------------9--9-9---|  
A|--------------------7--7-7---|
E|--------------------7--7-7---|


      E                 F#           G
E|-7--7-7--7--7--7-7/9--9---9--9-/10-10-|
B|-7--7-7--7--7--7-7/9--9---9--9-/10-10-|
G|-9--9-9--9--9--9-9/11-11--11-11/12-12-|
D|-9--9-9--9--9--9-9/11-11--11-11/12-12-|
A|--------------------------------------|
E|--------------------------------------|


Riff antes de voltar ao refrão

E|-7----7----7----10----|
B|---10---10---10---10--|
G|----------------------|
D|----------------------|
A|----------------------|
E|----------------------|


C             D
Come break me down and bury me, bury me
Em                  Bm
I am finished with you
C          D
Look in my eyes You're killing me, killing me
Em               (Bm)
All I wanted was you

C             D
Come break me down
         Em
break me down
         Bm
break me down


E|------------------------|---------------------------|
B|------------------------|---------------------------|
G|-12-9-------12-9--------|---------12---------12(14)-|
D|-----10-9--9----10-9--9-|-9h10-10----9h10-10--------|
A|---------10---------10--|---------------------------|
E|------------------------|---------------------------|


What if I wanted to break
What if I
What if I
  • 1
  • 2
  • 3
  • 4
  • 5
  • 6
  • 7
  • 8
  • 9
  • 10
  • 11
  • 12
    Acordes para:

      0 comentarios

        mostrar mas comentarios

        ¿Conseguiste tocar?

        64tocaron0aún no

        ¡Grave un vídeo tocando The Kill y envie para nosotros!

        00:00 / 00:00
        outros vídeos desta música
        repetirqualidadeautomática
        • automática
        Outro vídeos desta música
          00:00 / 00:00
          automática
          • automática
          cerrarplay/pause subir/bajar velocidad
            acordes
            cerrar
            OK
            Feedback