Notificações Amigos pendentes

      30 Seconds To Mars

      The Kill

      11.266 reproducciones
      Tono: G
      
           C   D   E   B   Em
      E|-x---x---x---x---0-------|
      B|-0---0---0---0---0-------|
      G|-0---0---0---0---2-------|
      D|-5---5---5---5---2-------|
      A|-3---5---7---2---0-------|
      E|-----------------0-------|
      
      
      C                        D
           What if I wanted to break
                               Em
      Laugh it all off in your face
                    Bm
      What would you do?
      C                          D
           What if I fell to the floor
                                Em
      Couldn't take all this anymore
                    Bm
      What would you do, do, do?
      
      C             D
      Come break me down and bury me, bury me
      Em                 Bm
      I am finished with you
      
                 (2x)                        (2x)
      
      E|------------------------|---------------------------|
      B|------------------------|---------------------------|
      G|-12-9-------12-9--------|---------12---------12(14)-|
      D|-----10-9--9----10-9--9-|-9h10-10----9h10-10--------|
      A|---------10---------10--|---------------------------|
      E|------------------------|---------------------------|
      
      
      C                   D
       What if I wanted to fight
                             Em
      Beg for the rest of my life
                    Bm
      What would you do?
      C
      You say you wanted more
      D
       What are you waiting for?
      Em                  Bm
      I'm not running from you (from you)
      
      C             D
      Come break me down and bury me, bury me
      Em                 Bm
      I am finished with you
      C          D
      Look in my eyes You're killing me, killing me
      Em               Bm
      All I wanted was you
      
      
         C             Bm       Em
         I tried to be someone else
                              C        D
         But nothing seems to change I know now
      
      
              E         F#*      G*       A*
      E|----------------------------------------|
      B|--0-0--0--0-0--0--0--0--0--0--0--0--0---|
      G|--9-9--9--9-11-11-11-12-12-12-14-14-14--|
      D|--9-9--9--9-11-11-11-12-12-12-14-14-14--|
      A|--7-7--7--7-9--9--9--10-10-12-12-12-12--|
      E|----------------------------------------|
      
          This  is  who  I   really   am
      
        C            Bm       D   Em                   C         D       Esse D que fica no "myself" é em Power Chord
      Inside  I finally found myself  Fighting for a chance  I know now,
      Em
      This  is  who  I  really  am
      
      
                                   B
      E|--X-X-X---X-X-X--------------|
      B|--X-X-X---X-X-X-----X--X-X---|
      G|--X-X-X---X-X-X-----9--9-9---| (3x)
      D|--------------------9--9-9---|  
      A|--------------------7--7-7---|
      E|--------------------7--7-7---|
      
      
            E                 F#           G
      E|-7--7-7--7--7--7-7/9--9---9--9-/10-10-|
      B|-7--7-7--7--7--7-7/9--9---9--9-/10-10-|
      G|-9--9-9--9--9--9-9/11-11--11-11/12-12-|
      D|-9--9-9--9--9--9-9/11-11--11-11/12-12-|
      A|--------------------------------------|
      E|--------------------------------------|
      
      
      Riff antes de voltar ao refrão
      
      E|-7----7----7----10----|
      B|---10---10---10---10--|
      G|----------------------|
      D|----------------------|
      A|----------------------|
      E|----------------------|
      
      
      C             D
      Come break me down and bury me, bury me
      Em                  Bm
      I am finished with you
      C          D
      Look in my eyes You're killing me, killing me
      Em               (Bm)
      All I wanted was you
      
      C             D
      Come break me down
               Em
      break me down
               Bm
      break me down
      
      
      E|------------------------|---------------------------|
      B|------------------------|---------------------------|
      G|-12-9-------12-9--------|---------12---------12(14)-|
      D|-----10-9--9----10-9--9-|-9h10-10----9h10-10--------|
      A|---------10---------10--|---------------------------|
      E|------------------------|---------------------------|
      
      
      What if I wanted to break
      What if I
      What if I
        Composición: Jared LetoColaboración y revision:
        • Caio
        • marcos.medeiros.guitarrista
        • Cleyton
        • Amábily
        • +3

        Comentarios 10

        140 .
        • ueverton.ferreira.77 ueverton.ferreira.77: Em 08/10/2015 13:53

          faz um video ensinado essa musica por favor

        • Beatriz Beatriz: Em 14/03/2014 22:03

          Tirei ela um pouco mais lenta que a original e num violão acústico! Nunca mais toco de outro jeito! ♡

        • joao.otavio.9028 joao.otavio.9028: Em 24/12/2013 00:58

          VIDEO AULA POR FAVOOOR?

        • Kaina Kaina: Em 26/10/2013 12:58

          \0/ MUITO FIIIRME!!

        • miguelsouza94 miguelsouza94: Em 09/01/2013 20:45

          como faz o ritmo?

        • vic.alves vic.alves: Em 07/10/2012 12:13

          Simplesmente F-O-D-A

        • grinddeath grinddeath: Em 02/11/2011 16:25

          batida, bem a da versão normal é cima baixo cima baixo sem parar, acustica deve ser mais leve

        • jj jj: Em 09/10/2011 12:41

          qual a batida ?

        • ny_mcz ny_mcz: Em 23/06/2011 11:57

          doo kralhaa essa musica

        • victornx42 victornx42: Em 06/03/2011 15:41

          muito bom kra

        140 cancelar

        ¿conseguiste tocar?

        • •••
        0:00 / 0:00

        Capitulos

          1 versão de contrabajo reproducciones contribuición y correción
          1 versão de batería reproducciones contribuición y correción
          play/pausefechar subir/bajar velocidad
          6ª cuerda E5ª cuerda A4ª cuerda D3ª cuerda G2ª cuerda B1ª cuerda E
            acordes
            publicidad
            cerrar
            ok