Cifra Club

Purpose

311

Cifrado: Principal (guitarra y guitarra eléctrica)
Selo Cifra Club: esta cifra foi revisada para atender aos critérios oficiais da nossa Equipe de Qualidade.
tono: E
E|-------7--------7----|
B|-------9--------9----|
G|-------8--------8----|
D|---------------------|
A|---------------------|
E|---------------------|


                                                                     
E|------9---------9-----|------11--------11----|------9---------9-----|
B|------10--------10----|------12--------12----|------10--------10----|
G|------9---------9-----|------11--------11----|------9---------9-----|
D|----------------------|----------------------|----------------------|
A|----------------------|----------------------|----------------------|
E|----------------------|----------------------|----------------------|


                                                                   
E|------7--------7----|------9---------9-----|------11--------11----|
B|------9--------9----|------10--------10----|------12--------12----|
G|------8--------8----|------9---------9-----|------11--------11----|
D|--------------------|----------------------|----------------------|
A|--------------------|----------------------|----------------------|
E|--------------------|----------------------|----------------------|


                                                                   
E|--9------------------| |------11--------11----|------9---------9-----|
B|--10-----------------| |------12--------12----|------10--------10----|
G|--9------------------| |------11--------11----|------9---------9-----|
D|---------------------| |----------------------|----------------------|
A|---------------------| |----------------------|----------------------|
E|---------------------| |----------------------|----------------------|


                                                                     
E|------11--------11----|------9---------9-----|------11--------11----|
B|------12--------12----|------10--------10----|------12--------12----|
G|------11--------11----|------9---------9-----|------11--------11----|
D|------13--------------|------11--------11----|------13--------------|
A|----------------------|----------------------|----------------------|
E|----------------------|----------------------|----------------------|


                                                                   
E|------9---------9-----|------11--------------|--9-----------------|
B|------10--------10----|------12--------12----|--10----------------|
G|------9---------9-----|------11--------11----|--9-----------------|
D|----------------------|----------------13----|--11----------------|
A|----------------------|----------------------|--------------------|
E|----------------------|----------------------|--------------------|

**GUITAR 2**

E|---------------------------|
B|---------------------------|
G|---------------------------|
D|---------------------------|
A|-----7-7-7--7--------7--7--|
E|---------------7--7--------|


                                                          
E|-------------------------|-------------------------------|
B|-------------------------|-------------------------------|
G|-------------------------|-------------------------------|
D|-------------------------|-------------------------------|
A|--9----9-------------11--|----11--11--11--------------9--|
E|------------9--9--9------|----------------11--11--11-----|


                                                                               
E|-------------------------|--------------------------|-------------------------|
B|-------------------------|--------------------------|-------------------------|
G|-------------------------|--------------------------|-------------------------|
D|-------------------------|--------------------------|-------------------------|
A|----9--9--9-----------7--|----7-7-7--7--------7--7--|--9----9-------------11--|
E|-------------9--9--9-----|--------------7--7--------|------------9--9--9------|


                                                                     
E|----------------------11----|--9------------------|
B|----------------------12----|--10-----------------|
G|----------------------11----|--9------------------|
D|----------------------13----|--11-----------------|
A|----11--11--11--------11----|--9------------------|
E|----------------11----------|---------------------| Pre-chorus

                                                                 
E|------------------------14----|--------------------------|
B|----11--12--11--12--11--------|----9--10--9--10--9-------|
G|------------------------------|---------------------9----|
D|------------------------------|--------------------------|
A|------------------------------|--------------------------|
E|------------------------------|--------------------------|


                                                        
E|------------------------14----|--14h13h12--------------|
B|----11--12--11--12--11--------|------------------------|
G|------------------------------|------------------------|
D|------------------------------|------------------------|
A|------------------------------|------------------------|
E|------------------------------|------------------------|


                                                          
E|------------------------14----|--------------------------|
B|----11--12--11--12--11--------|----9--10--9--10--9-------|
G|------------------------------|---------------------9----|
D|------------------------------|--------------------------|
A|------------------------------|--------------------------|
E|------------------------------|--------------------------|


                                                                               
E|------------------------14----|--14--16--------------|
B|----11--12--11--12--11--------|----------------------|
G|------------------------------|----------------------|
D|------------------------------|----------------------|
A|------------------------------|----------------------|
E|------------------------------|----------------------| Chorus

E|------------------------|-----------------------|------------------------|
B|------------------------|-----------------------|------------------------|
G|------------------------|-----------------------|------------------------|
D|------------------------|-----------------------|------------------------|
A|-----------7------------|-----7-----------------|-----------7------------|
E|--0--5--7---------4--5--|--7-------3--5--7------|--0--5--7---------4--5--|


                                                                          
E|------------------------|------------------------|-----------------------|
B|------------------------|------------------------|-----------------------|
G|------------------------|------------------------|-----------------------|
D|------------------------|------------------------|-----------------------|
A|-----7------------------|-----------7------------|-----7-----------------|
E|--7-------3--5--7--5----|--0--5--7---------4--5--|--7-------3--5--7------|


                                                                             
E|-------------------------|-------------------------| |------------------------|
B|-------------------------|-------------------------| |------------------------|
G|*------------------------|-------------------------| |------------------------|
D|*------------------------|-------------------------| |------------------------|
A|------------7------------|-----7-------------------| |-----------7------------|
E|---0--5--7---------4--5--|--7-------3--5--7--5-----| |--0--5--7---------4--5--|


                                                                 
E|-------------------------|-------------------|------------------|
B|-------------------------|-------------------|------------------|
G|-------------------------|-------------------|------------------|
D|-------------------------|-------------------|------------------|
A|-----7-------------------|--4----------------|------------------|
E|--7-------3--5--7--5--0--|--2----------------|------------------|


                                                                               
E|-------------------|-------------------|-------------------|------------------|
B|-------------------|-------------------|-------------------|------------------|
G|-------------------|-------------------|-------------------|------------------|
D|--2----------------|-------------------|-------------------|------------------|
A|--0----------------|------------2------|--4----------------|------------------|
E|-------------------|------------0------|--2----------------|------------------|


                                                                  
E|-------------------|--------------------|------------------------|
B|-------------------|--------------------|------------------------|
G|-------------------|--------------------|------------------------|
D|--2----------------|--------------------|------------------------|
A|--0----------------|------------2-------|------------------------|
E|-------------------|------------0----0--|--2----0--1--2----0--1--|


                                                                          
E|------------------------|------------------------|-----------------------|
B|------------------------|------------------------|-----------------------|
G|------------------------|------------------------|-----------------------|
D|------------------------|------------------------|-----------------------|
A|------------------------|------------------------|----------2----2-------|
E|--2----0--1--2----2--4--|--5----2--4--5----2--4--|--5--0----0----0----0--|


                                                                       
E|------------------------|------------------------|--------------------|
B|------------------------|------------------------|--------------------|
G|------------------------|------------------------|--------------------|
D|------------------------|------------------------|--------------------|
A|------------------------|------------------------|--4------------2----|
E|--2----0--1--2----0--1--|--2----0--1--2----0--0--|--4------------2----|


                                                                            
E|-------------------|
B|-------------------|
G|-------------------|
D|-------------------|
A|--2----------------|
E|--2----------------|
Otros videos de esta canción
    8 exhibiciones
      • ½ Tono
      • A
      • Bb
      • B
      • C
      • Db
      • D
      • Eb
      • E
      • F
      • F#
      • G
      • Ab
    • Agregar a la lista

    Afinación de cifrado

    Afinador online

      OK