Cifra Club

Wake Up

55 Escape

Cifrado: Principal (guitarra y guitarra eléctrica)
Selo Cifra Club: esta cifra foi revisada para atender aos critérios oficiais da nossa Equipe de Qualidade.
tono: A
Intro:
E|----------------------------------
B|----------------------------------
G|----------------------------------
D|----------------------------------
A|-x-x--x-x--x-x-x--x-x-x--x-x-x--x-x
D|-x-x--x-x--x-x-x--x-x-x--x-x-x--x-x

Rock!

E|----------------------------------
B|----------------------------------
G|----------------------------------
D|----------------------------------
A|-2-2--2-2--2-2-2--2-2-2--2-2-2--2-2
D|-2-2--2-2--2-2-2--2-2-2--2-2-2--2-2

I can`t hear my self think couse i`m talking to loud
What is this, comming out of my mouth
I try to focus, can hear my self think
Freedom is a kitch wich i can`t get up

Wake up! (wake up)
In the dead of the night
I feel the same as when i was a child
You may think so loud but you don`t know how
You can`t change the world

E|--------------
B|--------------
G|--------------
D|-0---4---2---
A|-0---4---2----
D|-0---4---2----

Running throught my mind, think i`m going down
Running throught my mind, feel i`m left behind (wake up, wake up)
Running throught my mind, think i`m going down
Running trought my mind, feel i`m left behind

E|----------------------------------
B|----------------------------------
G|----------------------------------
D|----------------------------------
A|-2-2--2-2--2-2-2--2-2-2--2-2-2--2-2
D|-2-2--2-2--2-2-2--2-2-2--2-2-2--2-2

Say what you want
You don`t know what`s going to you
Did you know, i feel i`m left behind
Say what you want
You don`t know what`s going to you
Did you know, i feel i`m way behind

E|----------------------------------
B|----------------------------------
G|----------------------------------
D|----------------------------------
A|-2-2--2-2--2-2-2--2-2-2--2-2-2--2-2
D|-2-2--2-2--2-2-2--2-2-2--2-2-2--2-2

can`t hear my self think couse i`m talking to loud
What is this, comming out of my mouth
I try to focus, can hear my self think
Freedom is a kitch wich i can`t get up

Wake up! (wake up)

Since i lost the fungus, it is all abound
Can you hear me breath
Do you see me drown

E|--------------
B|--------------
G|--------------
D|-0---4---2---
A|-0---4---2----
D|-0---4---2----

Running throught my mind, think i`m going down
Running throught my mind, feel i`m left behind (wake up, wake up)
Running throught my mind, think i`m going down
Running trought my mind, feel i`m left behind

E|----------------------------------
B|----------------------------------
G|----------------------------------
D|----------------------------------
A|-2-2--2-2--2-2-2--2-2-2--2-2-2--2-2
D|-2-2--2-2--2-2-2--2-2-2--2-2-2--2-2

Say what you want
You don`t know what`s going to you
Did you know, i feel i`m left behind
Say what you want
You don`t know what`s going to you
Did you know, i feel i`m way behind

E|--------------
B|--------------
G|--------------
D|----------
A|---2-2---
D|---2-2---

Wake up (wake up)
Say what you want
Wake up (wake up)
Hear what you want
Wake up (wake up)
See what you want
Wake up!

E|--------------------
B|--------------------
G|--------------------
D|--------------------
A|-2-2--2-2---2-2--2-2
D|-2-2--2-2---2-2--2-2

Say what you want
You don`t know what`s going to you
Did you know, i feel i`m left behind
Say what you want
You don`t know what`s going to you
Did you know, i feel i`m way behind

E|----------------------------------
B|----------------------------------
G|----------------------------------
D|----------------------------------
A|-2-2--2-2--2-2-2--2-2-2--2-2-2--2-2
D|-2-2--2-2--2-2-2--2-2-2--2-2-2--2-2
Otros videos de esta canción
    119 exhibiciones
      • ½ Tono
      • A
      • Bb
      • B
      • C
      • Db
      • D
      • Eb
      • E
      • F
      • F#
      • G
      • Ab
    • Agregar a la lista

    Afinación de cifrado

    Afinador online

      OK