Cifra Club

Hit The Ground

6Gig

Cifrado: Principal (guitarra y guitarra eléctrica)
Selo Cifra Club: esta cifra foi revisada para atender aos critérios oficiais da nossa Equipe de Qualidade.
tono: A
 Tabbed by Barry Hassan, *.
  
======================
======================

Tabbed by Barry Hassan
Comments to *

tuning is in dropped D style down to B and get heavy gauge strings to avoid elastic strings so its:

6th -- B
5th -- F#
4th -- B
3rd -- E
2nd -- G#
1st -- C#

------
Intro
------

These guys use alot of effects which are totally cool so i dont think its sounds right without them:

They also have two guitarists but this tab is for one guitar only:

1|---------------------------
2|-------------------13------
3|-------------------12------  x4
4|---------------------------
5|---------------------------
6|-0-0-x-x-x-x-0-0-----------

Then the cool bit:

1|----------------------------------
2|-------6------8-------11-----13--- 
3|-------5------7-------10-----12--- x2
4|-------x------x-------x------x----
5|-------3------5-------8------10---
6|--0-0-----0-0-----0-0----0-0------

-------
Verses
-------

Not alot of guitar in the verses just this with effects

1|------------------
2|---13--13--13--13-  
3|---12--12--12--12- 
Otros videos de esta canción
    22 exhibiciones
      • ½ Tono
      • A
      • Bb
      • B
      • C
      • Db
      • D
      • Eb
      • E
      • F
      • F#
      • G
      • Ab
    • Agregar a la lista

    Afinação da cifra

    Afinador online

      Ops (: Contenido disponible solo en portugués.
      OK