Cifra Club

Lol

7 Minutoz

Cifrado: Principal (guitarra y guitarra eléctrica)
tono: Bm
[Tab - Riff 1]

E|----------------------------------------------------|
B|----3----2------------------------------------------|
G|--2-------------------------------------------------|
D|----------------------------------------------------|
A|----------------------------------------------------|
E|----------------------------------------------------|

[Tab - Riff 1]

E|----------2---0-0-----------------------------------|
B|--------0---------2---------------------------------|
G|------2----------------0----------------------------|
D|--2/4----------------4---4--------------------------|
A|----------------------------------------------------|
E|----------------------------------------------------|

[Tab - Riff 3]

Parte 1 de 3

E|----------------------------------------------------|
B|--15-14-12------------------------------------------|
G|----------------------------------------------------|
D|----------------------------------------------------|
A|----------------------------------------------------|
E|----------------------------------------------------|

Parte 2 de 3

E|--------------12-14-12------------------------------|
B|-----12h14h15---------------------------------------|
G|--14------------------------------------------------|
D|----------------------------------------------------|
A|----------------------------------------------------|
E|----------------------------------------------------|

Parte 3 de 3

E|--------12------------------------------------------|
B|--15p14----14---------------------------------------|
G|----------------------------------------------------|
D|---------------11h12-11p9-11------------------------|
A|----------------------------------------------------|
E|----------------------------------------------------|

Bm7
Tentou me inibir

Agora aguenta a tropa
G
Sua tela tá cinza
    F#
Bem grande, na cara, tá escrito derrota
   Bm7
Tô com double buff, então não dá dive

Não te avisaram, eu sou o Faker no MID
   G
Te mato de Smite, tô com tanto farm
      F#
Que a bag transborda, fechei minha build

Bm7 
Eu não sou Zilean, eu tô sem tempo
G                F#
Meu copo Azuporã, mana com gelo
Bm7                         ´
Faço ser fácil, igual Yasuo
G                     F#
Jogo pro alto os fãs,(Sorye) sinta o vento!

Bm7
Mano, acabei de tomar um rework
G
Fiddle
         F#
Botei no Challenger minha smurf
Bm7
Nível

Shooting with Jhin, man, it's never enough
G
Evil
          F#
Tô te acertando com a minha Desert
Bm7
Eagle 

Bm7
Mano, acabei de tomar um rework
G
Fiddle
         F#
Botei no Challenger minha smurf
Bm7
Nível

Shooting with Jhin, man, it's never enough
G
Evil
          F#
Tô te acertando com a minha Desert
Bm7
Eagle 

Bm7
Sedento por sangue, pirata Gangplank
               G
Meu barril faz bang
               F#
Meu barril faz bang

Bang!
Bm7
Saqueando seu money

Tesouro pra gangue, cês são tudo uns cuck
             G
E mano eu tô bem
           F#
Só fuga de Benz

Bm7                                     G
Ou se quiser eu vou de Lambo (Eu vou de lambo)
                       F#                 Bm7
Chain tá com ice igual Trundle (Ice igual Trundle)

No palco, é fogo: Rumble
G               F#
Lil' bitch, sit down, be humble

Bm7
Taca fogo, Brand

Só puxada monstra pique Blitzcrank
G
1 milhão de gold na minha Nubank
F#
Minhas cartas na mesa: Twisted Fate
Bm7
Warwick: tô com sede

Seus hits? Tudo fake
G
Minha build tão quente
F#
Tank igual Malphite ou Tahm Kench
Bm7 
Cheirinho de peixe, eu Fizz fama
                G
Eles odeiam a escama
                            F#
Me jogou charme e deu Miss, dama?
                        Bm7
Eu pulei fora igual Tristana

Almejando o cume

Quer pagar de crítico, mas cê nem tá de Gume
           G
Chora, foi solado pelo Rapper de YouTube
  F#
E olha que eu nem usei minha Ult

Bm7
Mano, acabei de tomar um rework
G
Fiddle
         F#
Botei no Challenger minha smurf
Bm7
Nível

Shooting with Jhin, man, it's never enough
G
Evil
          F#
Tô te acertando com a minha Desert
Bm7
Eagle 

Bm7
Mano, acabei de tomar um rework
G
Fiddle
         F#
Botei no Challenger minha smurf
Bm7
Nível

Shooting with Jhin, man, it's never enough
G
Evil
          F#
Tô te acertando com a minha Desert
Bm7
Eagle 

Bm7
Sedento por sangue, pirata Gangplank
               G
Meu barril faz bang
               F#
Meu barril faz bang

Bang!
Bm7
Saqueando seu money

Tesouro pra gangue, cês são tudo uns cuck
             G
E mano eu tô bem
           F#   Bm
Só fuga de Benz
00:00 / 00:00
Otros videos de esta canción
Repetir
Otros videos de esta canción
Composición de Gabriel Rodrigues / Lucas A.R.T. / Peu028
Colaboración y revisión:
  • Eros Rian
    • ½ Tono
    • Am
    • Bbm
    • Bm
    • Cm
    • C#m
    • Dm
    • Ebm
    • Em
    • Fm
    • F#m
    • Gm
    • G#m
  • Agregar a la lista

    0 comentarios

    Ver todos los comentarios

    ¿Lograste tocar?

    0 Tocaron 0 Aún no

    ¡Graba un video tocando Lol y envíanoslo!

    00:00 / 00:00
    OK