Cifra Club

Rap do Sasuke e Itachi (Naruto) - A CANÇÃO DOS RENEGADOS

7 Minutoz

Cifrado: Principal (guitarra y guitarra eléctrica)
tono: G#m
E|----------------------------------------------------|
B|----------------------------------------------------|
G|----------------------------------------------------|
D|------------/6--------------/6----------------------|
A|-----6-6-7----------7---6---------7-----------------|
E|-4----------------4---4---------4-------------------|

E|----------------------------------------------------|
B|----------------------------------------------------|
G|----------------------------------------------------|
D|------------/6--------------/6----------------------|
A|-----6-6-7----------7---6---------7-----------------|
E|-4----------------4---4---------4-------------------|

E|----------------------------------------------------|
B|----------------------------------------------------|
G|----------------------------------------------------|
D|------------/6--------------/6----------------------|
A|-----6-6-7----------7---6---------7-----------------|
E|-4----------------4---4---------4-------------------|

E|----------------------------------------------------|
B|----------------------------------------------------|
G|----------------------------------------------------|
D|------------/6--------------/6----------------------|
A|-----6-6-7----------7---6---------7-----------------|
E|-4----------------4---4---------4-------------------|

E|----------------------------------------------------|
B|----------------------------------------------------|
G|----------------------------------------------------|
D|------------/6--------------/6----------------------|
A|-----6-6-7----------7---6---------7-----------------|
E|-4----------------4---4---------4-------------------|

SASUKE
[Gabriel Rodrigues]

G#m
Tô precisando acertar contas com meu irmão
E é sobre
C#m
Uchihas e sua maldição
Shinobi
G#m
O brilho que ilumina a escuridão
Essa noite
C#m
Vai ter som de pássaro e trovão
Chidori
G#m
Com a chama negra que 
nunca apaga
C#m
Essa labareda é: 
Amaterasu
          G#m
Mangekyo Sharingan quero despertar
Pra isso...
C#m
Eu tenho que matar 
Um amigo
G#m
Será que é isso que me faz
Um Uchiha?
C#m
Ter perdido tanto tempo atrás
Minha família?
G#m
Só remorso
(Só remorso)
C#m
Tanto ódio
(Tanto ódio)
G#m
Dizem que eu vou ser preso
Não ligo
C#m
Saibam que eu já não tenho
Amigos
G#m
Quero um poder supremo
Corrompido
C#m
Sei que desde pequeno
É o destino
G#m     C#m
Vivi chorando
G#m             C#m
Por ter perdido todo mundo
G#m     C#m
Implorando
G#m              C#m
Pra que fosse um genjutsu 
              G#m
Sinceramente, eu cansei de ser julgado por vocês
           C#m
Ninguém entende o que eu passei
Até porque só eu sei 
           G#m
Do meu passado
Eu não ligo para o bem
       C#m
As decisões que tomei
Esse meu ódio me fez
       G#m
Um renegado
É um mate ou morra
      C#m
Que acabe Konoha
Pela vila toda
         G#m
Sou procurado
E cada ninja vai saber
          C#m
Que eu cortei todos os laços
Fim de papo
Tá acabado
G#m
Tanto tempo
    C#m
Sem sentimentos
 G#m
Além de vingança
C#m
Só vingança

ITACHI
[Lucas A.R.T.]

G#m
Como um corvo
Um voo sombrio
C#m
E o meu rosto
Em cartaz de foragido
G#m
Eles falam de mim
Nukenin
C#m
Mas nem sempre foi assim
Uuh...
G#m
Eu cresci lá na Vila da Folha
C#m
E tive que fazer uma escolha
G#m
Eu matei minha família toda
C#m
Você sabe quem eu sou
G#m                     C#m  G#m
Aquele que a bandana riscou
             C#m
O Uchiha traidor
G#m
Dei o fora da Vila da Folha
C#m
Eu não sou uma pessoa boa
G#m
Cortei laços e o corvo voa
C#m
Só pousei pra me juntar com a Akatsuki
G#m
E só na morte eu vou te ter por perto
C#m
Juro que eu pensei que era o certo
G#m
Mas fiz da sua vida um inferno
C#m
Perdão...
G#m        C#m
Nuvens vermelhas de sangue
G#m              C#m
Só que hoje esse sangue é meu
G#m C#m                   G#m
Sasuke cumpriu o que prometeu
  C#m
Adeus, irmão
G#m                 C#m
Eu só queria te proteger dessa maldição
G#m               C#m
Mas o ódio de um Uchiha vem do coração
G#m         C#m           G#m
Não há salvação pra escuridão
    C#m
É assim que as coisas são
             G#m
Sinceramente, eu cansei de ser julgado por vocês
             C#m
Ninguém entende o que eu passei
Até porque só eu sei 
          G#m
Do meu passado
Eu não ligo para o bem
       C#m
As decisões que tomei
Esse meu ódio me fez
       G#m
Um renegado
00:00 / 00:00
Otros videos de esta canción
Repetir
Otros videos de esta canción
Composición de Gabriel Rodrigues / Lucas A.R.T
Colaboración y revisión:
  • Isabelli Alves
18 vistas
    • ½ Tono
    • Am
    • Bbm
    • Bm
    • Cm
    • C#m
    • Dm
    • Ebm
    • Em
    • Fm
    • F#m
    • Gm
    • G#m
  • Agregar a la lista

    0 comentarios

    Ver todos los comentarios

    ¿Lograste tocar?

    3 Tocaron 0 Aún no

    ¡Graba un video tocando Rap do Sasuke e Itachi (Naruto) - A CANÇÃO DOS RENEGADOS y envíanoslo!

    00:00 / 00:00
    OK