Cifra Club

Hit Your Back

98 Mute

Tab de bajo: Principal


Intro: (0:00 - 0:11)

G|---------------------------------------------------|
D|---------------------------------------------------|
A|--5--5-5-5-5-----------------3--3-3-3-3------------|
E|---------------5--5-5-5-5-----------------3--0-1-3-|


G|--------------------------------------------------------|
D|--------------------------------------------------------|
A|--5--5-5-5-5-----------------3--3-3-3-3-/ 10-10-10-10---|
E|---------------5--5-5-5-5-------------------------------|


Verse 1: (0:12 - 0:22)

G|------------------------------------------------------|
D|------------------------------------------------------|
A|--5--5-5-5-5-----------------3--3-3-3-3---------------|
E|---------------5--5-5-5-5-----------------3--3-3-3-3--|


G|------------------------------------------------------|
D|------------------------------------------------------|
A|--5--5-5-5-5-----------------3--3-3-3-3-/ 10-10-10-10-|
E|---------------5--5-5-5-5-----------------------------|


Verse 2: (0:22 - 0:53)

G|----------------------------------------------|
D|----------------------------------------------|
A|--5-5-------3-3-----------Repeat until Chorus-|
E|-------5-5-------3-3--------------------------|


Chorus: (0:53 - 1:14)

G|----------------------------------------|
D|----------------------------------------|
A|--3-3-3-3--5-5-5-5----------------------|
E|--------------------5-5-5-5-3-3-5-5-5-5-|


G|----------------------------------------------------|
D|--------------------------------/7-5----------------|
A|--3-3-3-3--5-5-5-5-------------------7-5-7-5--------|
E|--------------------5-5-5-5------------------7-5----|


G|-------------------------------------------|
D|-------------------------------------------|
A|--3-3-3-3--5-5-5-5-------------------------|
E|--------------------5-5-5-5-3-3-5-5-5-5----|


G|--------------------------|
D|--------------------------|
A|--3-3-3-3--5-5-5-5--7-7-7-|
E|--------------------------|

Verse 2 (1:14 - 1:45)

Chorus (1:45 - 2:04)

Verse 3 (2:05 - 3:00)

G|-------------------------------------------------------|
D|-------------------------------------------------------|
A|--5--5-5-5-5-----------------3--3-3-3-3----------------|
E|---------------5--5-5-5-5-----------------3--3-3-3-3---|


Ending: (3:01 - End)


G|-------------------------------------------------------|
D|------------------------------5------------------------|
A|--5----3----3-----5-5-7-8-7-8---7-5----Repeat Twice----|
E|----5----3----3----------------------------------------|


================================================================================
20 reproducciones

0 comentarios

Ver todos os comentários

¿Conseguiste tocar?

0 Tocaram 0 Ainda não

Grave um vídeo tocando Hit Your Back e nos envie!

00:00 / 00:00
outros vídeos desta música
repetir qualidade Automático
Outros vídeos desta música
00:00 / 00:00
Automático
OK