Cifra Club

Aprenda

Ciclone

A Bronkka

Tablatura: Principal (guitarra)
tono: G
Intro:
E|---------------------------------------------|
B|---------------------------------------------|
G|---7-7-7-7---7-7-7-7---7-7-7-7---7--7--------|
D|-5-------------------4-------------7--5------|
A|-----------5-------------------5-------------|
E|---------------------------------------------|

 G                            C
Cyclone não é marca de ladrão é a moda do ghetto
G                                         C
Mais com toda discriminção eu imponho respeito (2x)

G                    D             Em                D
Cap pro lado camiseta e bermudão, Cyclone vou de cyclone

E|---------------------------------------------|
B|---------------------------------------------|
G|---7-7-7-7---7-7-7-7---7-7-7-7---7--7--------|
D|-5-------------------4-------------7--5------|
A|-----------5-------------------5-------------|
E|---------------------------------------------|

É de cyclone vou de cyclone   (bis)

 G E7/9 Am7 D7/9 
Se tem adidas, billabong, seaway, mahalo e nike
 G E7/9 Am7 D7/9 
Maresia, fido dido, hang lose (2x)

G      D
 E a moda
  Em       D
Descer de cyclone
    G                     Am
O de varney na cara e kenner no pé (2x)

E|---------------------------------------------|
B|---------------------------------------------|
G|---7-7-7-7---7-7-7-7---7-7-7-7---7--7--------|
D|-5-------------------4-------------7--5------|
A|-----------5-------------------5-------------|
E|---------------------------------------------|

É de cyclone vou de cyclone   (bis)
Composição de Igor Canário
Colaboración y revision:
  • orleans
27 reproducciones
    • ½ Tono
    • A
    • Bb
    • B
    • C
    • Db
    • D
    • Eb
    • E
    • F
    • F#
    • G
    • Ab
  • Adicionar à lista

    0 comentarios

    Ver todos os comentários

    ¿Conseguiste tocar?

    0 Tocaram 0 Ainda não

    Grave um vídeo tocando Ciclone e nos envie!

    00:00 / 00:00
    outros vídeos desta música
    repetir qualidade Automático
    Outros vídeos desta música
    00:00 / 00:00
    Automático
    OK