Cifra Club

Cyclone

A Bronkka

Cifrado: Principal (guitarra y guitarra eléctrica)
tono: G
(intro)

E|---------------------------------------------|
B|---------------------------------------------|
G|---7-7-7-7---7-7-7-7---7-7-7-7------7---7----|
D|-5---------5---------4---------4--4---4---5--|
A|---------------------------------------------|
E|---------------------------------------------|

 G                            C
Cyclone não é marca de ladrão é a moda do ghetto
G                                         C
Mais com toda discriminção eu imponho respeito (2x)

G                    D             Em                D
Cap pro lado camiseta e bermudão, Cyclone vou de cyclone

E|---------------------------------------------|
B|---------------------------------------------|
G|----7-7-7-7----7-7-7-7----7-7-7-7----7-7-7-7-|
D|--5----------4----------5----------4---------|
A|---------------------------------------------|
E|---------------------------------------------|

É de cyclone vou de cyclone   (bis)

( G E7/9 Am7 D7/9 )
Se tem adidas, billabong, seaway, mahalo e nike
( G E7/9 Am7 D7/9 )
Maresia, fido dido, hang lose (2x)

G      D
 E a moda
  Em       D
Descer de cyclone
    G                     Am
O de varney na cara e kenner no pé (2x)

E|---------------------------------------------|
B|---------------------------------------------|
G|----7-7-7-7----7-7-7-7----7-7-7-7----7-7-7-7-|
D|--5----------4----------5----------4---------|
A|---------------------------------------------|
E|---------------------------------------------|

É de cyclone vou de cyclone   (bis)
Composición de Igor Cannário
Colaboración y revisión:
  • alisson santos
  • spartaco avellar
  • diego barros
27 vistas
    • ½ Tono
    • A
    • Bb
    • B
    • C
    • Db
    • D
    • Eb
    • E
    • F
    • F#
    • G
    • Ab
  • Agregar a la lista

    0 comentarios

    Ver todos los comentarios

    ¿Lograste tocar?

    1 Tocaron 0 Aún no

    ¡Graba un video tocando Cyclone y envíanoslo!

    00:00 / 00:00
    Outros vídeos desta música
    Repetir Calidad Automático
    Outros vídeos desta música
    00:00 / 00:00
    Automático
    OK