Cifra Club

Aprenda

Hit do Posto

A Bronkka

Tablatura: Principal (guitarra)
tono: G
Intro:
E|-------------------------|
B|-------------------------|
G|-------------------------|
D|-----------7-----------5-|
A|-8-5-8-5h8---7-4-7-4h7---|
E|-------------------------|

1ª parte:
E|----------------------|
B|----------------------|
G|----------------------|
D|------------3-2-------|
A|--------2-3-----------|
E|-6--6-3---------3-5-6-|

2ª parte:
E----------------|
B|---------------|
G|---------------|
D|---------------|
A|-7-4h7--7-4h7--|
E|---------------|
Colaboración y revision:
  • raylan macêdo
34 reproducciones
    • ½ Tono
    • A
    • Bb
    • B
    • C
    • Db
    • D
    • Eb
    • E
    • F
    • F#
    • G
    • Ab
  • Adicionar à lista

    0 comentarios

    Ver todos os comentários

    ¿Conseguiste tocar?

    0 Tocaram 0 Ainda não

    Grave um vídeo tocando Hit do Posto e nos envie!

    00:00 / 00:00
    outros vídeos desta música
    repetir qualidade Automático
    Outros vídeos desta música
    00:00 / 00:00
    Automático
    OK