Cifra Club

Crying In The Rain

a-ha

Cifrado: Principal (guitarra y guitarra eléctrica)
tono: D
[Intro] D

[Primeira Parte]

D     G     A       D
I'll never let you see
  D          G              A       D
The way my broken heart is hurting me
D             G           F#         Bm
I've got my pride and I know how to hide
        G
All my sorrow and pain
A                         Bm
I'll do my crying in the rain

[Segunda Parte]

D     G     A       D
If I wait for stormy skies
D                       G        
U wont know the rain from 
              A   D
the tears in my eyes
D              G           F#
You'll never know that I still love you
 Bm       G
So only heartaches remain
A                               Bm
I'll do my crying in the rain

[Ponte]

G                      Em
Raindrops falling from heaven
      A                  D
Could never take away my misery
Bm
Since we're not together
     G
I'll pray for stormy weather
   A
To hide these tears 

I hope you'll never see

[Guitarra Solo]

E|-----------------------------------------------|
B|-------7-----9----11---------------------------|
G|--10-------------------------------------------|
D|-----------------------------------------------|
A|-----------------------------------------------|
E|-----------------------------------------------|

[Terceira Parte]

D    G                  A       D
Someday when my crying's done
D          G               A       D
I'm gonna wear a smile and walk in the sun
D           G           F#
I may be a fool but till then darlin'
Bm             G
You'll never see me complain
A                       Bm
I'll do my crying in the rain. 

( Em G D Bm Em G D E Em G D )

E|------------3h2/7~--------------7h11-----------|
B|-5h4/10~------------3h2/9-------------12h13/7~-|
G|---------------------------5h4/9---------------|
D|-----------------------------------------------|
A|-----------------------------------------------|
E|-----------------------------------------------|

E|-----------3h2/7~--------------7/11------------|
B|--5h4/10~------------3/8-------------7h6/12~---|
G|--------------------------5/9------------------|
D|-----------------------------------------------|
A|-----------------------------------------------|
E|-----------------------------------------------|

E|--------------3h2/7~---------------------------|
B|--5h4/10~---------------6/10~------------------|
G|-----------------------------------------------|
D|-----------------------------------------------|
A|-----------------------------------------------|
E|-----------------------------------------------|

[Final]

Bm
Since we're not together
     G
I'll pray for stormy weather
   A
To hide these tears I hope you'll never see
D    G                  A       D
Someday when my crying's done
D          G               A            D
I'm gonna wear a smile and walk in the sun
D           G           F#
I may be a fool but till then darlin'
Bm             G
You'll never see me complain
A                               Bm
I'll do my crying in the rain...
A                               Bm
I'll do my crying in the rain...
A                               Bm
I'll do my crying in the rain...

( D G D )
Composición de Carole King / Howard Greenfield
Colaboración y revisión:
4.154 vistas
    • ½ Tono
    • A
    • Bb
    • B
    • C
    • Db
    • D
    • Eb
    • E
    • F
    • F#
    • G
    • Ab
  • Agregar a la lista

    0 comentarios

    Ver todos los comentarios

    ¿Lograste tocar?

    34 Tocaron 1 Aún no

    ¡Graba un video tocando Crying In The Rain y envíanoslo!

    00:00 / 00:00
    Outros vídeos desta música
    Repetir Calidad Automático
    Outros vídeos desta música
    00:00 / 00:00
    Automático
    OK