Cifra Club

Take On Me

a-ha

Cifrado: Principal (guitarra y guitarra eléctrica)
tono: G#m
[Primeira Parte]

[Parte 01 De 03]

   C#m          F#
E|------------------------------------------|
B|-----5------------2-----------------------|
G|-6-------6----3-------3-------------------|
D|---6-------6----4-------4-----------------|
A|-4-----4----------------------------------|
E|--------------2-----2---------------------|

[Parte 02 De 03]

   B            E    B4/D#
E|------------------------------------------|
B|-----4--------5----5----------------------|
G|-4-------4----4----4----------------------|
D|---4-------4------------------------------|
A|-2-----2------7----6----------------------|
E|------------------------------------------|

[Parte 01 De 03]

   C#m          F#
E|------------------------------------------|
B|-----5------------2-----------------------|
G|-6-------6----3-------3-------------------|
D|---6-------6----4-------4-----------------|
A|-4-----4----------------------------------|
E|--------------2-----2---------------------|

[Parte 02 De 03]

   B            E    B4/D#
E|------------------------------------------|
B|-----4--------5----5----------------------|
G|-4-------4----4----4----------------------|
D|---4-------4------------------------------|
A|-2-----2------7----6----------------------|
E|------------------------------------------|

[Parte 01 De 03]

   C#m          F#
E|------------------------------------------|
B|-----5------------2-----------------------|
G|-6-------6----3-------3-------------------|
D|---6-------6----4-------4-----------------|
A|-4-----4----------------------------------|
E|--------------2-----2---------------------|

[Parte 03 De 03]

   G#m          E
E|------------------------------------------|
B|-----4------------5-----------------------|
G|-4-------4----4-------4-------------------|
D|---6-------6----6-------6-----------------|
A|--------------7-----7---------------------|
E|-4-----4----------------------------------|

       C#m         F#
We're talking away
B                 E         B4/D#
I don't know what   I'm to say
      C#m       F#
I'll say it anyway
   B             E      B4/D#
Today's another day to find you
C#m          F#  G#m
    Shying away
                         E
I'll be coming for your love, ok

[Refrão]

[Parte 01 De 04]

   B            F#
E|------------------------------------------|
B|-----4------------2-----------------------|
G|-4-------4----3-------3-------------------|
D|---4-------4----4-------4-----------------|
A|-2-----2----------------------------------|
E|--------------2-----2---------------------|

[Parte 02 De 04]

   G#m          E    F#
E|------------------------------------------|
B|-----4--------5----7----------------------|
G|-4-------4----4----6----------------------|
D|---6-------6--5----8----------------------|
A|--------------7----9----------------------|
E|-4-----4----------------------------------|

[Parte 01 De 04]

   B            F#
E|------------------------------------------|
B|-----4------------2-----------------------|
G|-4-------4----3-------3-------------------|
D|---4-------4----4-------4-----------------|
A|-2-----2----------------------------------|
E|--------------2-----2---------------------|

[Parte 02 De 04]

   G#m          E    F#
E|------------------------------------------|
B|-----4--------5----7----------------------|
G|-4-------4----4----6----------------------|
D|---6-------6--5----8----------------------|
A|--------------7----9----------------------|
E|-4-----4----------------------------------|

[Parte 01 De 04]

   B            F#
E|------------------------------------------|
B|-----4------------2-----------------------|
G|-4-------4----3-------3-------------------|
D|---4-------4----4-------4-----------------|
A|-2-----2----------------------------------|
E|--------------2-----2---------------------|

[Parte 03 De 04]


   G#m          E
E|------------------------------------------|
B|-----4------------5-----------------------|
G|-4-------4----4-------4-------------------|
D|---6-------6----6-------6-----------------|
A|--------------7-----7---------------------|
E|-4-----4----------------------------------|


[Parte 01 De 04]

   B            F#
E|------------------------------------------|
B|-----4------------2-----------------------|
G|-4-------4----3-------3-------------------|
D|---4-------4----4-------4-----------------|
A|-2-----2----------------------------------|
E|--------------2-----2---------------------|

[Parte 04 De 04]

   G#m          E    
E|------------------------------------------|
B|-----4--------5---------------------------|
G|-4-------4----4---------------------------|
D|---6-------6--5---------------------------|
A|--------------7---------------------------|
E|-4-----4----------------------------------|

 B   F#  G#m  E  F#
Take on me
 B    F#  G#m  E  F#
Take me   on
B     F#  G#m
I'll be  gone
E             B     F#  G#m  E
  In a day or   two

[Segunda Parte]

 C#m         F#
Needless to say
    B
I'm odds and ends
E           B4/D#  C#m       F#
  But I'll be    stumbling away
  B                   E      B4/D#
Slowly learning that life is ok
C#m            F#
    Say after me
G#m                       E
    It's no better to be safe than sorry

[Refrão Final]

 B   F#  G#m  E  F#
Take on me
 B    F#  G#m  E  F#
Take me   on
B     F#  G#m
I'll be  gone
E             B     F#  G#m
  In a day or   two
E             B     F#  G#m
  In a day or   two
00:00 / 00:00
Otros videos de esta canción
Repetir
Otros videos de esta canción
Composición de Magne Furuholmen / Morten Harket / Paul Waaktaar-Savoy
Colaboración y revisión:
  • Leandro Sandim
  • Thiago Almeida
41.701 vistas
  • Simplificar cifrado
    • ½ Tono
    • Am
    • Bbm
    • Bm
    • Cm
    • C#m
    • Dm
    • Ebm
    • Em
    • Fm
    • F#m
    • Gm
    • G#m
  • Agregar a la lista

    0 comentarios

    Ver todos los comentarios

    ¿Lograste tocar?

    52 Tocaron 7 Aún no

    ¡Graba un video tocando Take On Me y envíanoslo!

    00:00 / 00:00
    Capítulos
    • Tocando a Música
    • Apresentação / Equipamentos
    • Acordes da Música
    • Tocando Primeira Parte
    • Ensinando Primeira Parte
    • Tocando Refrão
    • Ensinando Refrão
    • Encerramento
    OK